Song name
# A B C D E F G H I J K L M N O P Q R S T U V W X Y Z

Phil Wickham - This Is Amazing Grace tab

This is Amazing Grace tab (Bb)

This is tabbed from the video http://youtu.be/w2k4rbMva8Y
I did not write this interpretation.


Intro x2
|------------------------------13-15--------------|
|-16-15-13-15--15-13-15---13-15-------------------|
|-----------------------15------------------------|
|-------------------------------------------------|
|-------------------------------------------------|
|-------------------------------------------------|

|-------------------------------------------------|
|-16-15-13-15--15-13-15---13-15-------------------|
|-----------------------15-----12-10--------------|
|-------------------------------------------------|
|-------------------------------------------------|
|-------------------------------------------------|

Verse (All palm Muted, except for notes on G string & slide at end)
|-------------------------------------------------|
|-------------------------------------------------|
|-------------------------------------------------|
|-888888-5--888888-10-12-888888-10-12--888888-7-5-|
|---------8---------------------------------------|
|-666666----666666-------666666--------666666-----|
 
|--------------------------------------------------------|
|--------------------------------------------------------|
|--------------10-----------------7-----7-----7----------|
|----------------------------------------------------7/8-|
|-101010101010----8888888888--6-10-10-10-10-10-10--------|
|--------------------------------------------------------|

Chorus
|----------------------------------------------------|
|-11-\--6----11-11-11---11--10-8----10--11-13--------|
|-10-\--7----8--10-8----10--10-10---10--10-10--------|
|-8--\--8----8--8--8----------------10--10-10--------|
|------(5)--------------10--10-10--------------------|
|----------------------------------------------------|

He hits this right bf bridge
|---|
|-3-|
|-3-|
|-3-|
|-5-|
|(6)|

Bridge
|--------|    --------------|
|--------|    ----10-11-----|
|-8-7----|    -8-7----------|
|------8-|    --------------|
|----10--| x3 --------------|
|--------|    --------------|

|--------|    -------------|
|--------|    ------11-----|
|-8-7----|    --10---------|
|------8-|    -------------|
|----10--| x3 -------------|
|--------|    -------------|


Ends on
|---|
|-3-|
|-3-|
|-3-|
|-5-|
|(6)|
Tap to rate this tab
# A B C D E F G H I J K L M N O P Q R S T U V W X Y Z