Song name
# A B C D E F G H I J K L M N O P Q R S T U V W X Y Z

Phil Wickham - After Your Heart tab

Help us improve GuitareTab! Take a short survey!
Fill for guitar after he sings
(answer is clear) and (coming sound)

------9---------12----------------|
-7-9------9-10--------------------|
----------------------------------|
----------------------------------|
----------------------------------|
----------------------------------|
part of other fill for pre chorus
----------------------------------|
--------14---------16-------------|
-----14---------16----------------|
--14---------16-------------------|
----------------------------------|
----------------------------------|

when you play it you'll figure out where it goes

Related for After Your Heart tab