Song name
# A B C D E F G H I J K L M N O P Q R S T U V W X Y Z

Philadelphia Grand Jury - Im Going To Kill You tab

Help us improve GuitareTab! Take a short survey!
I'm Going to Kill You. - Philadelphia Grand Jury

their myspace

It's ok, it's tabbed by Alex Lamberton :)


intro/verse:

-2-2-2-2-2-2-2-2-5-----------------------------------------|
-2-2-2-2-2-2-2-2-4-----------------------------------------|
-3-3-3-3-3-3-3-3-4-------------4-(--------)----------------|
-4-4-4-4-4-4-4-4-4-(variation)-4-(let ring)----------------|
-------------------------------2-(--------)----------------|
-----------------------------------------------------------|

near the end fill with this:

-----------------------------------------------------------|
-----------------------------------------------------------|
---4---4---------------------------------------------------|
-4-4-4-4---------------------------------------------------|
-4-2-4-2---------------------------------------------------|
-2---2-----------------------------------------------------|

lead lick thing:

-7---7-----------------------------------------------------|
---7-------------------------------------------------------|
-----------------------------------------------------------|
-----------------------------------------------------------|
-----------------------------------------------------------|
-----------------------------------------------------------|


chorus riff:

-----------------------------------------------------------|
-----------------------------------------------------------|
-----------------------------------------------------------|
-----------------------------------------------------------|
-----------------2-2-2-2-4---------------------------------|
-2-2-2-2-5-2-5-2-----------5qb-----------------------------|

-----------------------------------------------------------|
-----------------------------------------------------------|
-----------------------------------------------------------|
-----------------------------------------------------------|
-----------------2-2-2-2-4---------------------------------|
-2-2-2-2-5-2-5-2-------------------------------------------|


breakdown chords (listen for strumming pattern):

F# maj
G# min
A# min
B maj

then

F# maj
G# min
B maj


lead breakdown pt:

-9---------------------------------------------------------|
---10-11-12-11---------------------------------------------|
---------------11------------------------------------------|
-----------------------------------------------------------|
-----------------------------------------------------------|
-----------------------------------------------------------|

-9-------11-9----------------------------------------------|
---10-11------11-------------------------------------------|
-----------------------------------------------------------|
-----------------------------------------------------------|
-----------------------------------------------------------|
-----------------------------------------------------------|
Related for Im Going To Kill You tab