Song name
# A B C D E F G H I J K L M N O P Q R S T U V W X Y Z

Philadelphia Grand Jury - Were Going To The Casino Tomorrow Night tab

Going to the Casino (Tomorrow Night) - Philadelphia Grand Jury

their myspace

Tabbed by Alex Lamberton

verse pt 1 ("we're going to the casino ..."):

-----------------------------------------------------------|
-----------------------------------------------------------|
-----8----8-10/12-10-8-10----------------------------------|
-/10---10------------------(rhythm plays an octave down)---|
-----------------------------------------------------------|
-----------------------------------------------------------|

verse pt 2 ("what could possibly go wrong?"):

-----------------------------------------------------------|
-----------------------------------------------------------|
-------------------------10--------------------------------|
-10-10-10-10-10-10-10-10-10--------------------------------|
-10-10-10-10-10-10-10-10-8---------------------------------|
-8--8--8--8--8--8--8--8------------------------------------|

little lead lick thing:

-9--10-12---------------------------------------13---------|
-10-11-12-(tremolo and this note for variation)-13---------|
-----------------------------------------------------------|
-----------------------------------------------------------|
-----------------------------------------------------------|
-----------------------------------------------------------|

bridge pt 1 ("and then it hits me ..."):

-----------------------------------------------------------|
-----------------------------------------------------------|
-----------------------------------------------------------|
-10-(----------)-------------------------------------------|
-10-(-let ring-)-------------------------------------------|
-8--(----------)-------------------------------------------|

-----------------------------------------------------------|
-----------------------------------------------------------|
-----------------------------------------------------------|
-13-(----------)-------------------------------------------|
-13-(-let ring-)-------------------------------------------|
-11-(----------)-------------------------------------------|

-----------------------------------------------------------|
-----------------------------------------------------------|
-----------------------------------------------------------|
-8-(----------)-/(10)--------------------------------------|
-8-(-let ring-)-/(10)--------------------------------------|
-6-(----------)-/(8-)--------------------------------------|

lead pt (on final repetition):

-----------------------------------------------------------|
-10-11-10--------------------------------------------------|
----------10-----------------------------------------------|
-----------------------------------------------------------|
-----------------------------------------------------------|
-----------------------------------------------------------|

bridge pt 2 ("love, with me"):

-----------------------------------------------------------|
-----------------------------------------------------------|
-----------------------------------------------------------|
-12-12-12-12-12-12-12-12-12-12-12-12-12-12-12-12-----------|
-12-12-12-12-12-12-12-12-12-12-12-12-12-12-12-12-----------|
-10-10-10-10-10-10-10-10-10-10-10-10-10-10-10-10-----------|

-----------------------------------------------------------|
-----------------------------------------------------------|
-----------------------------------------------------------|
-15-15-15-15-15-15-15-15-15-15-15-15-15-15-15-15-----------|
-15-15-15-15-15-15-15-15-15-15-15-15-15-15-15-15-----------|
-13-13-13-13-13-13-13-13-13-13-13-13-13-13-13-13-----------|


lead fill:

--------------------13-------------------------------------|
-----------------13-13-------------------------------------|
-----------13-15-------------------------------------------|
-----13-15-------------------------------------------------|
-/15-------------------------------------------------------|
-----------------------------------------------------------|

outro chords:

-----------------------------------------------------------|
-----------------------------------------------------------|
---------------3-3-3-3-3-3-3-3-----------------------------|
-3-3-3-3-3-3-3-3-3-3-3-3-3-3-3-----------------------------|
-3-3-3-3-3-3-3-1-1-1-1-1-1-1-1-----------------------------|
-1-1-1-1-1-1-1---------------------------------------------|

outro riff (something like this, too hard to discern):

-----------------------------------------------------------|
-----------------------------------------------------------|
-----------------------------------------------------------|
---------------------------1-3-----------------------------|
---------------1-1-4-1-4-1---------------------------------|
-1-1-4-1-4-1-4---------------------------------------------|
Tap to rate this tab
# A B C D E F G H I J K L M N O P Q R S T U V W X Y Z