Song name
# A B C D E F G H I J K L M N O P Q R S T U V W X Y Z

Philadelphia Grand Jury - Going To The Casino Tomorrow Night tab

Philadelphia Grand Jury – Going To The Casino (Tomorrow Night)

Great song, hilarious film-clip.


Intro/Riff 1
“I’m going to the casino...”
|------------------------------|
|------------------------------| 
|-------8----8—10s12-10-8-10---|
|--8s10---10-------------------|x4
|------------------------------|
|------------------------------|


Verse
"What could possibly go wrong..."
|------------------------------| 
|------------------------------| 
|-----------------------10-----| 
|--10-10-10-10-10-10-10-10-----|x4 
|--10-10-10-10-10-10-10-8------| 
|--8—-8—-8—-8—-8—-8—-8---------|


Riff 1
|------------------------------|
|------------------------------| 
|-------8----8—10s12-10-8-10---|
|--8s10---10-------------------|x4
|------------------------------|
|------------------------------|


Verse
|------------------------------| 
|------------------------------| 
|-----------------------10-----| 
|--10-10-10-10-10-10-10-10-----|x4 
|--10-10-10-10-10-10-10-8------| 
|--8—-8—-8—-8—-8—-8—-8---------|


Chorus (let these ring out)
“Then it hits me...”
|------------------------------| 
|------------------------------| 
|--5-------8-------3-----------| 
|--5-------8-------3-----------|x2 
|--3-------6-------1-----------| 
|------------------------------| 

|---------------------------------------------------------------13---| 
|----------------------------------------------------------11-13-----| 
|--5---8---77777777777777771010101010101010--------8—10-12-----------| 
|--5---8---77777777777777771010101010101010---8s10-------------------| 
|--3---6---55555555555555558-8-8-8-8-8-8-8---------------------------| 
|--------------------------------------------------------------------| 

Riff 1
|------------------------------|
|------------------------------| 
|-------8----8—10s12-10-8-10---|
|--8s10---10-------------------|x4
|------------------------------|
|------------------------------|


Verse
|------------------------------| 
|------------------------------| 
|-----------------------10-----| 
|--10-10-10-10-10-10-10-10-----|x4 
|--10-10-10-10-10-10-10-8------| 
|--8—-8—-8—-8—-8—-8—-8---------|


Riff 1
|------------------------------|
|------------------------------| 
|-------8----8—10s12-10-8-10---|
|--8s10---10-------------------|x4
|------------------------------|
|------------------------------|


Verse
|------------------------------| 
|------------------------------| 
|-----------------------10-----| 
|--10-10-10-10-10-10-10-10-----|x4 
|--10-10-10-10-10-10-10-8------| 
|--8—-8—-8—-8—-8—-8—-8---------|


Chorus (let these ring out)
|------------------------------| 
|------------------------------| 
|--5-------8-------3-----------| 
|--5-------8-------3-----------|x2 
|--3-------6-------1-----------| 
|------------------------------| 

|-------------------------------------------| 
|-------------------------------------------| 
|--5---8---77777777777777771010101010101010-| 
|--5---8---77777777777777771010101010101010-| 
|--3---6---55555555555555558-8-8-8-8-8-8-8--| 
|-------------------------------------------| 

Riff 1 x 1

Outro
“I’ve got nobody....”
|-------------------------------------------| 
|-------------------------------------------| 
|---10-10-10-10-10-10-3--3--3--3--3--3------| 
|---10-10-10-10-10-10-3--3--3--3--3--3------|x8 
|---8--8--8--8--8--8--1—-1--1--1--1--1------| 
|-------------------------------------------| 


Going To The Casino by Philadelpia Grand Jury
HY>11.11
Tap to rate this tab
# A B C D E F G H I J K L M N O P Q R S T U V W X Y Z