Song name
# A B C D E F G H I J K L M N O P Q R S T U V W X Y Z

Philadelphia Grand Jury - Ready To Roll tab

Tabbed By: T-Bone
Email: demo-goblin@hotmail.com

Tuning: Standard

Intro/Verse:
e|---------------------------------------------------------|
B|---------------------------------------------------------|
G|---------------------------------------------------------|  X3
D|------------------------5--------------------------------|
A|-7--7-5-7--7-5-7--7-5-7---7-5--7--7-5-7--7-5-------------|
E|----------------------------------------------5-5-5--7-7-|

Chorus:
e|---------------------------------------|
B|---------------------------------------|
G|---------------------------------------|
D|---------------5-------------------5---|
A|-7-5h7-5h7-5-7---7-5h7-5h7-5h7-5-7---7-|
E|---------------------------------------|

e|-------------------------------------------------|
B|-------------------------------------------------|
G|-------------------------------------------------|
D|-----------------5-------------------------------|
A|-5h7-5h7-5h7-5-7---7-5-7--7-5-7--7-5-------------|
E|--------------------------------------5-5-5--7-7-|

Verse:
e|---------------------------------------------------------|
B|---------------------------------------------------------|
G|---------------------------------------------------------|  X2
D|------------------------5--------------------------------|
A|-7--7-5-7--7-5-7--7-5-7---7-5--7--7-5-7--7-5-------------|
E|----------------------------------------------5-5-5--7-7-|

Chorus:
e|---------------------------------------|
B|---------------------------------------|
G|---------------------------------------|
D|---------------5-------------------5---|
A|-7-5h7-5h7-5-7---7-5h7-5h7-5h7-5-7---7-|
E|---------------------------------------|

e|-------------------------------------------------|
B|-------------------------------------------------|
G|-------------------------------------------------|
D|-----------------5-------------------------------|
A|-5h7-5h7-5h7-5-7---7-5-7--7-5-7--7-5-------------|
E|-------------------------------------------------|

Bridge:
e|-------------------------------------------------|
B|-------------------------------------------------|
G|-------------------------------------------------|  X2
D|-------------------------------------------------|
A|-7-7--9------------------7-7--9------------------|
E|-5-5--7------------------5-5--7------------------|

e|-------------------------------------------------|
B|-------------------------------------------------|
G|-------------------------------------------------|  X2
D|-------------------------------------------------|
A|-7-7--9---12-------------7-7--9------------------|
E|-5-5--7---10-------------5-5--7------------------|

e|-------------------------------------------------|
B|-------------------------------------------------|
G|-------------------------------------------------|  X2
D|------------------------------6--7------7-7-7-7--|
A|-7-7--9---12--5-5--xxxx--7-7--4--5------5-5-5-5--|
E|-5-5--7---10--7-7--xxxx--5-5---------------------|

Verse:
e|---------------------------------------------------------|
B|---------------------------------------------------------|
G|---------------------------------------------------------|  X2
D|------------------------5--------------------------------|
A|-7--7-5-7--7-5-7--7-5-7---7-5--7--7-5-7--7-5-------------|
E|----------------------------------------------5-5-5--7-7-|

Chorus:
e|---------------------------------------|
B|---------------------------------------|
G|---------------------------------------|
D|---------------5-------------------5---|
A|-7-5h7-5h7-5-7---7-5h7-5h7-5h7-5-7---7-|
E|---------------------------------------|

e|-------------------------------------------------|
B|-------------------------------------------------|
G|-------------------------------------------------|
D|-----------------5-------------------------------|
A|-5h7-5h7-5h7-5-7---7-5-7--7-5-7--7-5-------------|
E|--------------------------------------5-5-5--7-7-|

Outro:
e|---------------------------------------------------------|
B|---------------------------------------------------------|
G|---------------------------------------------------------|
D|------------------------5--------------------------------|
A|-7--7-5-7--7-5-7--7-5-7---7-5--7--7-5-7--7-5-------------|
E|----------------------------------------------5-5-5--7-7-|

e|----------------------------------|
B|----------------------------------|
G|----------------------------------|
D|------------------------5---------|
A|-7--7-5-7--7-5-7--7-5-7---7-5--7--|
E|----------------------------------|

| h  hammer-on
| x  mute note
===================================================================
Tap to rate this tab
 
# A B C D E F G H I J K L M N O P Q R S T U V W X Y Z