Song name
# A B C D E F G H I J K L M N O P Q R S T U V W X Y Z

Philip Glass - Truman Sleeps tab

-------------------------------------------------------------------------------
			     Truman Sleeps - Philip Glass
-------------------------------------------------------------------------------
Tabbed by: Eruion
Email: Random_leming@hotmail.co.uk

Tuning:Eadgbe

This song is usually played by piano or two guitars but I've found a way to play both 
at the same time. Although this can be tricky it makes a great sound.
I didn't have the patients to finish it but here are the first few lines:

e|---------------------------------------------------------------------------|
B|----1--1------2--2------1--1------1--1-------------------------------------|
G|---1--1--1---1--1--1---1--1--1---0--0--0-----------------------------------|
D|--3--3--3---3--3--3---1--1--1---2--2--2------------------------------------|
A|---------------------------------------------------------------------------|
E|---------------------------------------------------------------------------|       x2

e|-----1----3----4-----------------------------------------------------------|
B|-----1------1---------------2--2---1-2-1---1---1------1--1-----------------|
G|---1------1------1--3-----1--1--1--------1---1--1---0--0--0----------------|
D|--3-----3------3-------3--3--3---------1---1--1---2--2--2------------------|
A|---------------------------------------------------------------------------|
E|---------------------------------------------------------------------------|

e|-----1----3----4-------------------------------------------------------------|
B|-----1------1---------------2--2---1-2----1---1------1--1--------------------|
G|---1------1------1--3-----1--1--1--------1---1--1---0--0--0------------------|
D|--3-----3------3-------3--3--3---------1---1--1---2--2--2--------------------|
A|---------------------------------------3----------3--------------------------|
E|-----------------------------------------------------------------------------|


************************************

| /   slide up
| \   slide down
| h   hammer-on
| p   pull-off
| ~   vibrato
| +   harmonic
| x   Mute note
| b   Bend
| pb  Pre-bend
| br  Bend release
| pbr Pre-bend release
| brb Bend release bend

************************************
Tap to rate this tab
 
# A B C D E F G H I J K L M N O P Q R S T U V W X Y Z