Song name
# A B C D E F G H I J K L M N O P Q R S T U V W X Y Z

Philip Glass - Koyaanisqatsi tab

This is my first tab! Hope you like it :)
Bass
|-----------------------------|
|-----------------------------|
|--5----3----1----8--7--5-----|
|--------------------------5--|

Arpeggio
|------------5---------5---------5---------5---------------------------|
|-------------------------5---5-----5---5------------8---------8-------|
|----7---7------7---7-------------------------7---7-----7---7----------|
|------7----------7---------7---------7---------5---------5------------|
|----------------------------------------------------------------------|
|----------------------------------------------------------------------|

Bridge
|-----------------------------|
|-----------------------------|
|--7---9---10---12------------|
|----7---7----7----7----------|
|-----------------------------|
|-----------------------------|

Organ
|--------3--5--3-----------------5--3--------------3--5--3-----3--5-6-5-6-5-|
|--3--6-----------6--5-----5--6--------6--5--3--6-----------6---------------|
|-----------------------5---------------------------------------------------|
|---------------------------------------------------------------------------|
|---------------------------------------------------------------------------|
|---------------------------------------------------------------------------|

|-3---------------------------|
|----6--5---------------------|
|-----------------------------|
|-----------------------------|
|-----------------------------|
|-----------------------------]
Tap to rate this tab
# A B C D E F G H I J K L M N O P Q R S T U V W X Y Z