Song name
# A B C D E F G H I J K L M N O P Q R S T U V W X Y Z

Philip Glass - Truman Sleeps tab

Composer: Phillip Glass
Title: Truman Sleeps

Piano arranged for guitar

Guitar 1

e|-----------------------------------------------------------------|
b|-----------------------------------------------------------------|
g|-----5-----5---------6-----6---------5-----5---------5-----5-----|X2
d|---6-----6-----6---6-----6-----6---6-----6-----6---5-----5-----5-|
a|-8-----8-----8---8-----8-----8---6-----6-----6---7-----7-----7---|
E|-----------------------------------------------------------------|

Guitar 1

e|-----------------------------------------------------------------||
b|-----------------------------------------------------------------||
g|-----5-----5---------6-----6---------5-----5---------5-----5-----||
d|---6-----6-----6---6-----6-----6---6-----6-----6---5-----5-----5-||
a|-8-----8-----8---8-----8-----8---6-----6-----6---7-----7-----7---||
E|-----------------------------------------------------------------||
                                                                    | 
Guitar 2                                                            |
                                                                    |
e|-----1---3---4---6-------8---9---8-------------------------------||
b|-----------------------------------------------------------------||
g|-----------------------------------------------------------------||
d|-----------------------------------------------------------------||
a|-----------------------------------------------------------------||
E|-----------------------------------------------------------------||

Guitar 1

e|-----------------------------------------------------------------||
b|-----------------------------------------------------------------||
g|-----5-----5---------6-----6---------5-----5---------5-----5-----||
d|---6-----6-----6---6-----6-----6---6-----6-----6---5-----5-----5-||
a|-8-----8-----8---8-----8-----8---6-----6-----6---7-----7-----7---||
E|-----------------------------------------------------------------||
                                                                    | 
Guitar 2                                                            |
                                                                    |
e|-----1---3---4---6-------8---9---11--------------12--------------||
b|---------------------------------13--------------13--------------||
g|-----------------------------------------------------------------||
d|-----------------------------------------------------------------||
a|-----------------------------------------------------------------||
E|-----------------------------------------------------------------||

Guitar 1

e|-----------------------------------------------------------------||
b|-----------------------------------------------------------------||
g|-----5-----5---------6-----6---------5-----5---------5-----5-----||
d|---6-----6-----6---6-----6-----6---6-----6-----6---5-----5-----5-||
a|-8-----8-----8---8-----8-----8---6-----6-----6---7-----7-----7---||
E|-----------------------------------------------------------------||
                                                                    | 
Guitar 2                                                            |
                                                                    |
e|-----16--15--13--13--------------11--------------12--------------||
b|-----------------14--------------13--------------13--------------||
g|-----------------------------------------------------------------||
d|-----------------------------------------------------------------||
a|-----------------------------------------------------------------||
E|-----------------------------------------------------------------||

Guitar 1

e|-----------------------------------------------------------------||
b|-----------------------------------------------------------------||
g|-----5-----5---------6-----6---------5-----5---------5-----5-----||
d|---6-----6-----6---6-----6-----6---6-----6-----6---5-----5-----5-||
a|-8-----8-----8---8-----8-----8---6-----6-----6---7-----7-----7---||
E|-----------------------------------------------------------------||
                                                                    | 
Guitar 2                                                            |
                                                                    |
e|-----16--15--13--13----------------------------------------------||
b|-----------------14----------------------------------------------||
g|-----------------------------------------------------------------||
d|-----------------------------------------------------------------||
a|---------------------------------6---------------7---------------||
E|---------------------------------8---------------8---------------||

Guitar 1

e|-----------------------------------------------------------------||
b|-----------------------------------------------------------------||
g|-----5-----5---------6-----6---------5-----5---------5-----5-----||
d|---6-----6-----6---6-----6-----6---6-----6-----6---5-----5-----5-||
a|-8-----8-----8---8-----8-----8---6-----6-----6---7-----7-----7---||
E|-----------------------------------------------------------------||
                                                                    | 
Guitar 2                                                            |
                                                                    |
e|-----1---3---4---6-------8---9---11--------------12--------------||
b|---------------------------------13--------------13--------------||
g|-----------------------------------------------------------------||
d|-----------------------------------------------------------------||
a|-----------------------------------------------------------------||
E|-----------------------------------------------------------------||

Guitar 1

e|-----------------------------------------------------------------||
b|-----------------------------------------------------------------||
g|-----5-----5---------6-----6---------5-----5---------5-----5-----||
d|---6-----6-----6---6-----6-----6---6-----6-----6---5-----5-----5-||
a|-8-----8-----8---8-----8-----8---6-----6-----6---7-----7-----7---||
E|-----------------------------------------------------------------||
                                                                    | 
Guitar 2                                                            |
                                                                    |
e|-----1---3---4---6-------8---9---11--------------12--------------||
b|---------------------------------13--------------13--------------||
g|-----------------------------------------------------------------||
d|-----------------------------------------------------------------||
a|-----------------------------------------------------------------||
E|-----------------------------------------------------------------||

Guitar 1

e|---------------------------------------------------------------------------------||
b|---------------------------------------------------------------------------------||
g|---------------------------------------------------------------------------------||
d|---------------------------------------------------------------------------------||
a|-11-11-11-11-11-11-11-11-10-10-10-10-10-10-10-10-6-6-6-6-6-6-6-6-5-5-5-5-5-5-5-5-||
E|-13-13-13-13-12-12-12-12-11-11-11-11-9--9--9--9--8-8-8-8-7-7-7-7-6-6-6-6-4-4-4-4-||
                                                                    
Guitar 2                                                            
                                                                                           
e|---------------------------------------------------------------------------------||
b|-9--9--9--9--9--9--9--9--8--8--8--8--8--8--8--8--4-4-4-4-4-4-4-4-3-3-3-3-3-3-3-3-||
g|---------------------------------------------------------------------------------||
d|---------------------------------------------------------------------------------||
a|---------------------------------------------------------------------------------||
E|---------------------------------------------------------------------------------||

Guitar 1

e|-----------------------------------------------------------------||
b|-----------------------------------------------------------------||
g|-----------------------------------------------------------------||X2
d|-----------------------------------------------------------------||
a|---5---5---5---5---4---4---4---4---5---5---5---5---4---4---4---4-||
E|-6---6---6---6---6---6---6---6---6---6---6---6---6---6---6---6---||
                                                                    | 
Guitar 2                                                            |
                                                                    |
e|---------16--15--13----------------------9---8---6---------------||
b|-----------------------------------------------------------------||
g|-----------------------------------------------------------------||X1
d|-----------------------------------------------------------------||
a|-----------------------------------------------------------------||
E|-----------------------------------------------------------------||

First time i've bothered uploading a tab. Any comments - danopunk@hotmail.com
Tap to rate this tab
# A B C D E F G H I J K L M N O P Q R S T U V W X Y Z