Guitaretab - guitar tabs
Song name
# A B C D E F G H I J K L M N O P Q R S T U V W X Y Z

Philip Sayce - Alchemy tab

-------------------------------------------------------------------------------
                             Alchemy - Philip Sayce
-------------------------------------------------------------------------------

Tabbed by: Mees Dijkman ( creativemees)
https://www.facebook.com/mees.dijkman

(Please comment or contact me for any problems 
and vote for the tabs pls for more tabs)


Tuning: Eb Standard
(0:00)
e|------------------------------------10-------------------------------------|
B|-----8-8-10-8-10b~~--10br8-10br8-10br8-10b---r10-10~~----------------------|
G|-9-9-----------------------------------------------------------------------|
D|---------------------------------------------------------------------------|
A|---------------------------------------------------------------------------|
E|---------------------------------------------------------------------------|

e|-10/12\10------------------------------------------------------------------|
B|-10/12\10--8/10\8~---8--------------------------------7br~-----------------|
G|-----------7/9 \7----7h9-7----7----------------------------8---------------|
D|---------------------------10---7h9~-7h9 7----7-9~-----------7/9~----------|
A|-------------------------------------------10---------------------9\6h7----|
E|---------------------------------------------------------------------------|

e|------7--------------------------------------------------------------------|
B|----7--------8--10br~---------15-------------------------------------------|
G|-/8-------/9---------------14b--pb14p12-----14br~---pb14-12--12h14-14~\----|
D|-----------------------------------------14----------------14--------------|
A|---------------------------------------------------------------------------|
E|-----------------------16\-------------------------------------------------|

e|-10/12\10------------------------------------------------------------------|
B|-10/12\10--10br-p8--8----------------------------7brbr~--------------------|
G|--------------------7h9-7----7--------------------------8------------------|
D|--------------------------10---7h9~-7h9-7-----------------7/9--------------|
A|------------------------------------------10~\----------------9\6h7\-------|
E|---------------------------------------------------------------------------|

e|------7---------------------------------------------17br-15----------------|
B|----7-------/8~-10brbr-p7~-3h5/7~---/8~--/10~--/12~---------17-------------|
G|-/8-----------------------------------------------------------14h16p14\12~\|
D|---------------------------------------------------------------------------|
A|-----------------------------------/7~--/9~--/10~--------------------------|
E|----------/8---------------------------------------------------------------|

e|----10---------------------------------------------------------------------|
B|-/8----10brbr-7~--4h5--7h8p7\5~--------------------------------------------|
G|--------------------------------4~-----------------------------------------|
D|-----------------------------------5~--------------------------------------|
A|------------------6--------------------------------------------------------|
E|/8-------------------------------------------------------------------------|

[ Tab from: http://www.guitaretab.com/p/philip-sayce/323552.html ]
(1:15)
e|-----------------10----------------------10-12-----------------------------|
B|--8-10-10b~---10b--pbr10-8---10b10br--/12------12\10p8---10br-p8---10-8-8~-|
G|/9-------------------------9----------------------------9---------9--------|
D|---------------------------------------------------------------------------|
A|---------------------------------------------------------------------------|
E|---------------------------------------------------------------------------|

e|------------------------------------------------------7--------10-12-12/15~|
B|-8/10\8--8----------8------------7brbr~--------------7----10-12------------|
G|-7/9-\7--7h9-7----7-7h9-7--------------8-----------/8----------------------|
D|---------------10---------10\------------7/9-------------------------------|
A|--------------------------------------------9\6h7\-------------------------|
E|---------------------------------------------------------------------------|

e|-12----12------------------------------------------------------------------|
B|----15----12--------------------------15---------------15------------------|
G|-------------14bx-14br-p12--------14b-pbr14p12-----14b-pbr14p12------------|
D|---------------------------14~\----------------14~--------------14~--------|
A|---------------------------------------------------------------------------|
E|---------------------------------------------------------------------------|

e|---------------------------------10/12\10/12\10----------------------------|
B|-----------15--------------------10/12\10/12\10--8/10\8/10\8---------------|
G|-14b14br~--14p12----12h14-14\--------------------7/9-\7/9-\7---------------|
D|-----------------14--------------------------------------------------------|
A|---------------------------------------------------------------------------|
E|---------------------------------------------------------------------------|

e|----------------------------------------------------------7----------------|
B|-8-------------------------------7brbr~------------------7-----------------|
G|-7h9-7----7-----------------------------8--------------/8------------------|
D|-------10---7h9-7----7-7h9-7--------------7/9------------------------------|
A|------------------10---------10~--------------9\6h7\-----------------------|
E|---------------------------------------------------------------------------|

e|---------------------------------------------------------------------------|
B|--/8---10brbr---7~\5\3-3h5/7~---/8~-/10~/12~~--/15-/17-/20-20\-------------|
G|---------------------------------------------------------------------------|
D|---------------------------------------------------------------------------|
A|-------------------------------/7--/9--/10----/12-/14-/17-17\--------------|
E|-/8------------------------------------------------------------------------|

e|-------10-------------------------------------|
B|----/8----10br~7~-\5~-4h5--7h8p7\5~-----------|
G|------------------------------------4~--------|
D|---------------------------------------5~-----|
A|----------------------6-----------------------|
E|-/8---------------------------------------17~-|

(Please comment or contact me for any problems and vote for the tabs pls for more tabs)


Tabbed by: Mees Dijkman (creativemees)
https://www.facebook.com/mees.dijkman


************************************

| /   slide up
| \   slide down
| h   hammer-on
| p   pull-off
| ~   vibrato
| +   harmonic
| x   Mute note
| b   Bend
Related for Alchemy tab
Alchemy chords by Philip Sayce