Philip Selway - By Some Miracle chords

Highlighted       Show chord diagrams
======================================
By Some Miracle
by Philip Selway
Familial (2010)

Tab by: Sushimiaumiau (Abraham Sayago)
======================================

This is a more finger-friendly version tab made with open chords
(almost all of them). You just need to put a capo on the 1st fret
in order to get the correct key, and then you are done.

Enjoy.

======================================

* Standard Tuning - Capo 1st fret
  All chords are realitve to capo.

------
Intro:
------
Em  Dsus2  A  A - Asus4 (x2)

--------
Verse: 1
--------
   Em       Dsus2  A      A - Asus4
As I cave into temptation
      Em      Dsus2     A    A - Asus4
I've strayed across the line
Em            Dsus2        A          A - Asus4
Keep it under wraps in the cold store
Em            Dsus2        A    A - Asus4
Put it to the back of your mind
G             Dsus2        Em
Put it to the back of your mind

-------
Chorus:
-------
Em      D          G
By some miracle, I just got away with it
     Am              Bm
I've clawed it back again
Em      D          G
By some miracle, I just got away with it
     Am
I've clawed it back
    Bm             [Em - Em/D# - C/E - C/C# x2]
I'm crawling back again

--------
Verse: 2
--------
          Em        Dsus2        A        A - Asus4
There's a black dog down in the basement
     Em      Dsus2   A    A - Asus4
It's barking out my name
 Em            Dsus2         C
Snapping at my heels when I falter
Em              Dsus2      A   A - Asus4
Kick it, but it won't go away
G              Dsus2      Em
Kick it, but it won't go away

-------
Chorus:
-------
Em      D          G
By some miracle, I just got away with it
     Am              Bm
I've clawed it back again
Em      D          Bm
By some miracle, I just got away with it
     Am
I've clawed it back
    Bm
I'm crawling back again

[Em - Em/D# - B/D# - E/C]
Put it back, put it back
Put it where you found it

-------
Ending:
-------
C#m  A  Am  E

====================
Chords:

A....... x02220 (verses)
A....... 577655 (ending)
Asus4... x02230
Am...... x02210
Bm...... x24432
C#m..... x46654
D....... xx0232
Dsus2... xx0230
E....... 022100
Em...... 022000
G....... 320003

Chords played during the 'Put it back, put it back' part: 

Em...... x7998x  or  xx2000
Em/D#... x6998x  or  xx1000
B/D#.... x6987x  or  xx1002
E/C..... 8xx97x  or  x32x02 <- Not totally sure.

So, to make this completely clear:

    Em             Em/D#          B/D#             E/C
e|--------------------------------------------------------------|
B|---------11-------------11-------------8---------------8------|
G|---------12-------------12-------------9------------10----10--|
D|------12-------------12-------------10-------10---------------|
A|--9-----------9--8-----------8--8-----------------------------|
E|-------------------------------------------------9------------|
    Put it back,   put it back,   put it where you found it.

------------------------------ or -------------------------------

    Em             Em/D#          B/D#             E/C
e|---------0--------------0--------------2---------------2------|
B|---------0--------------0--------------0---------------0------|
G|------0-------0------0--------------0--------0----------------|
D|--2--------------1-----------1--1------------------2-------2--|
A|-------------------------------------------------3------------|
E|--------------------------------------------------------------|
    Put it back,   put it back,   put it where you found it.
Tap to rate this tab
 
# A B C D E F G H I J K L M N O P Q R S T U V W X Y Z