Song name
# A B C D E F G H I J K L M N O P Q R S T U V W X Y Z

Philipp Poisel - Wie Du tab

Strophe:
   D
1:--------------------2|--------------------2|--------------------2|
2:---------------------|---------------------|---------------------|
3:----2--0--0------2---|----2--0--0------2---|----2--0--0------2---|
4:-0----------0--0-----|-0----------0--0-----|---------------------|
5:---------------------|---------------------|---------------------|
6:---------------------|---------------------|-3----------3--3-----|
 Auf endlosen Strassen,                 lauf ich dir nach.
 D                                   
1:--------------------2|                    
2:---------------------|                 
3:----2--0--0------2---|    
4:---------------------|                   
5:---------------------|                
6:-3----------3--3-----|
   D
1:--------------------2|--------------------2|--------------------2|
2:---------------------|---------------------|---------------------|
3:----2--0--0------2---|----2--0--0------2---|----2--0--0------2---|
4:-0----------0--0-----|-0----------0--0-----|---------------------|
5:---------------------|---------------------|---------------------|
6:---------------------|---------------------|-3----------3--3-----|
In saemtlichen Sprachen,            schlage ich nach

1:--------------------2|    
2:---------------------|
3:----2--0--0------2---|    2x   
4:---------------------|
5:-0----------0--0-----|
6:---------------------|
                    
   
um dir zu sagen, was ich empfind'.
Und ich werde nicht geh'n, bis ich dich find'.

Bridge: 
    A                                                  G        A
Ich bin allein in der Nacht, wie du, wenn niemand dich bewacht.


Refrain:
               D                            Bm
Wenn ich deine Lieder hoer' und dich vor mir seh'.
                  D                           A
Und ich nich' bei dir sein kann, dann tut mir das weh.
                  D                             Bm         
Wenn ich deine Lieder hoer, gibt mein Herz keine Ruh',
              D                        A
bis ich bei dir sein kann. Ich fuehle wie du,
              D                           Bm
oh ich fuehle wie du.

Strophe:
In endlosen Waeldern hab' ich Feuer gemacht,
damit du mich sehn' kannst, jede, jede...
Ich bin allein' in der Nacht, wie du, wenn niemand dich bewacht.

Refrain:
Wenn ich deine Lieder hoer' und dich vor mir seh'.
Und ich nich' bei dir sein kann, dann tut mir das weh.
Wenn ich deine Lieder hoer, gibt mein Herz keine Ruh', bis ich bei dir sein kann.
Ich fuehle wie du,
oh ich fuehle wie du.

Strophe:
Ich bin allein' in der Nacht, wie du.
Ich hab Angst in der Nacht, wie du, wie du.
Und ich tanz' durch die Nacht, wie du.
Denn ich liebe die Nacht, wie du, wie du.

                  D
Ich bin allein in der Nacht, wie du
                 Bm
und ich hab Angst in der Nacht, wie du
                      D
und ich tanz' durch die Nacht, wie du,
                 Bm
denn ich liebe die Nacht, wie du.
                 D
Ich bin allein' in der Nacht, wie du.
                   Bm
Und ich hab Angst in der Nacht, wie du.
                 D
Und ich tanz' durch die Nacht, wie du.
                  Bm
Denn ich liebe die Nacht, wie du
                D
Wie du ich fuehl so wie du.
          Bm      D
nanannananana
Tap to rate this tab
# A B C D E F G H I J K L M N O P Q R S T U V W X Y Z