Song name
# A B C D E F G H I J K L M N O P Q R S T U V W X Y Z

Philipp Poisel - Liebe Meines Lebens tab

Tabbed by: Jan S.


Tuning: C-A-C-G-B-E

Intro/Vers:
e|---------------------------------------------------------------------------|
B|---------------------------------------------------------------------------|
G|------0--------0---------0-------------0------------0----------0-------0---|
C|----0---0----0---0-----0----0-------0-----0------0-----0-----0---0----0--0-|
A|--3--------3----------3-----------7-----------8------------8--------8------|
C|---------------------------------------------------------------------------|

e|---------------------------------------------------------------------------|
B|---------------------------------------------------------------------------|
G|--------0------------------------------------------------------------------|
C|-----0-----0---------------------------------------------------------------|
A|--5------------------------------------------------------------------------|
C|---------------------------------------------------------------------------|

Refrain
e|---------------------------------------------------------------------------|
B|---------------------------------------------------------------------------|
G|--------0----------0--------0-------0--------0-------0---------0-------0---|
D|------0---0------0---0----0---0---0---0----0---0---0---0----0----0---0---0-|
A|----7---------7---------8-------8---------3-------3-------3--------3-------|
E|---------------------------------------------------------------------------|

     4x                  4x               2x          2x            4-6x
e|---------------------------------------------------------------------------|
B|---------------------------------------------------------------------------|
G|--------0------------------0----------------0-----------0----------0-------|
C|-----0----0-------------0----0-----------0-----0-----0----0-----0-----0----|
A|---8-----------------3----------------8------------5----------3------------|
C|---------------------------------------------------------------------------|

At the end you can play the e-string (C) to every tone on the a-string
Tap to rate this tab
 
# A B C D E F G H I J K L M N O P Q R S T U V W X Y Z