Song name
# A B C D E F G H I J K L M N O P Q R S T U V W X Y Z

Philipp Poisel - Durch Die Nacht tab

Hey there, just created this tab by ear, so sorry, if it's wrong =) but i think it 
rather sounds like the original =)). Enjoy

PS: It's played in the beginning and the end of the song

|------7-----7-----7-----7-----7-----7-----7-----7-----7-----7-|
|----7-----7-----7-----7-----7-----8-----8-----8-----8-----8---|
|--7-----7-----7-----7-----7-----7-----7-----7-----7-----7-----|
|--------------------------------------------------------------|
|--------------------------------------------------------------|
|--------------------------------------------------------------|

|-------7------7------7------7------7------7------7------7------7------7-|
|----10-----10-----10-----10-----10-----10-----10-----10-----10-----10---|
|--7------7------7------7------7------9------9------9------9------9------|
|------------------------------------------------------------------------|
|------------------------------------------------------------------------|
|------------------------------------------------------------------------|
Tap to rate this tab
 
# A B C D E F G H I J K L M N O P Q R S T U V W X Y Z