Song name
# A B C D E F G H I J K L M N O P Q R S T U V W X Y Z

Philipp Poisel - Als Gbs Kein Morgen Mehr tab

capo on 4th

intro:

e|-------------------------------------------------------------------------|
h|-------3---3---3---3---3---3---3---3----3---3---3---3-----3---3---3---3--|
g|-----0---0---0---0---0---0---0---0---------------------------------------|
D|-------------------------------------------------------------------------|
A|-------------------------------------------------------3---3---3---3-----|
E|--------------------------------------1---1---1---1----------------------|

vers: (bis "damals im zirkus")
e|-------------------------------------------------------------------------|
h|-------3---3---3---3---3---3---3---3----3---3---3---3-----3---3---3---3--|
g|-----0---0---0---0---0---0---0---0---------------------------------------|
D|-------------------------------------------------------------------------|
A|-------------------------------------------------------3---3---3---3-----|
E|--------------------------------------1---1---1---1----------------------|

chrods: (das ganze restliche lied :D)

e|-------------------------------------------------------------------------|
h|---3---3---3---3----1---1---1---1----0---0---0---0----1---1---1---1------|
g|-------------------------------------------------------------------------|
D|-------------------------------------------------------------------------|
A|-------------------------------------------------------------------------|
E|-3---3---3---3----3---3---3---3----3---3---3---3----3---3---3---3--------|

e|-------------------------------------------------------------------------|
h|---3---3---3---3----1---1---1---1----0---0---0---0----1---1---1---1------|
g|-------------------------------------------------------------------------|
D|-------------------------------------------------------------------------|
A|-3---3---3---3----3---3---3---3----3---3---3---3----3---3---3---3--------|
E|-------------------------------------------------------------------------|

Tap to rate this tab
# A B C D E F G H I J K L M N O P Q R S T U V W X Y Z