Song name
# A B C D E F G H I J K L M N O P Q R S T U V W X Y Z

Philipp Poisel - Markt Und Fluss tab

-------------------------------------------------------------------------------
			     Markt Und Fluss - Philipp Poisel
-------------------------------------------------------------------------------
Tabbed by: Bred_Zwickmuehl

Tuning: Standard

CAPO 1

e|-------------2h3-----0---------|
B|-------------------------------|
G|------------------2------------|
D|---------2---------------------|
A|------2------------------------|
E|---0---------------------------|

Bei dem Strummingpart einfach Em und D spielen. Das wars schon! Viel Spaß! :)
Tap to rate this tab
 
# A B C D E F G H I J K L M N O P Q R S T U V W X Y Z