Song name
# A B C D E F G H I J K L M N O P Q R S T U V W X Y Z

Philipp Poisel - Markt Und Fluss tab

--------------------------------------------------------------------------------------------------
                                                          MARKT UND FLUSS by Philipp Poisel
--------------------------------------------------------------------------------------------------
Tabbed by: Sus´l
this tabs created by eye and ear - Enjoy! ;)

Tuning: Standard - Capo 3th fret - 3/4 Takt - Tempo 68


Intro

e|-------0h1-----|-------0h1-3---|-------0h1-----|-------0h1-----|-------3h1-0---|-------0h1-----|
B|-----3-----3---|-----3-------3-|-----3-----3---|-----3-----3---|-----3-------3-|-----3-----3---|
G|---2---------2-|---2-----------|---0---------0-|---2---------2-|---2-----------|---0---------0-|
D|-0-------------|-0-------------|---------------|-0-------------|-0-------------|---------------|
A|---------------|---------------|-3-------------|---------------|---------------|-3-------------|
E|---------------|---------------|---------------|---------------|---------------|---------------|
               3x                              4x              3x                        
      4x

1. Strophe
e|-------0h1-----|-------0h1-----|
B|-----3-----3---|-----3-----3---|
G|---2---------2-|---0---------0-| 4x
D|-0-------------|---------------|
A|---------------|-3-------------|
E|---------------|---------------|
               4x              4x

Morgens in den Nebel schauend,
mich fragend, wo das Leben bleibt,
Tee trinkend und Schwazbrot kauend,
zähl ich die Tage.
Großstadtschluchten ziehen mich ein,
es klappert hier und da.
Ich bilde mir zu leben ein,
im Rinnstein stirbt ein Schwein.

Refrain
e|-------0h1-----|-------0h1-----|
B|-----3-----3---|-----3-----3---|
G|---2---------2-|---0---------0-| 2x
D|-0-------------|---------------|
A|---------------|-3-------------|
E|---------------|---------------|
               4x              4x

Ich hab ja meinen Markt und meinen Fluss,
über den, ich jeden Morgen geh.

2. Strophe
e|-------0h1-----|-------0h1-----|
B|-----3-----3---|-----3-----3---|
G|---2---------2-|---0---------0-| 2x
D|-0-------------|---------------|
A|---------------|-3-------------|
E|---------------|---------------|
               4x              4x

In Bahnhofshallen groß und kalt,
träum ich von dem Sommerwald.
Ich geh auf die Straße raus,
wohin fahren die Züge?


after the 2. Refrain play accords:

  Dm (Fm)  Cadd9 (Ebadd9)
e|-1-|     |-x-|
B|-3-|     |-3-|
G|-2-|     |-0-|
D|-0-|     |-2-|
A|-x-|     |-3-|
E|-x-|     |-x-|

************************************

| /   slide up
| \   slide down
| h   hammer-on
| p   pull-off
| ~   vibrato
| +   harmonic
| x   Mute note
| b   Bend
| pb  Pre-bend
| br  Bend release
| pbr Pre-bend release
| brb Bend release bend

************************************
Tap to rate this tab
 
# A B C D E F G H I J K L M N O P Q R S T U V W X Y Z