Song name
# A B C D E F G H I J K L M N O P Q R S T U V W X Y Z

Philipp Poisel - Wie Soll Ein Mensch tab

Hi im Christian from "Christians How To Plays"

These Chords/Tabs are 100% correct. 

To look how i play the strumming parts please visit my video lesson of the Song: 

http://www.youtube.com/watch?v=-qbBXFnWMjc

Please Comment, Like and share my Videos.

Now, have fun with the Song: 



Wie soll ein Mensch - Philipp Poisel

Capo 1st fret


[Intro:]

|---------------------------------0----|  4X
|------3--------3--------3----------3--|
|----0-- 0----0---0----0---0----2------|
|-----------------------------0--------|
|-----------3--------------------------|
|--0-----------------3-----------------|

[Verse Melody Git 2:] 

E||--7--------7--------8-------|--7--------7--------5-------|
B||-----8--------8--------8----|-----8--------8--------7----|
G||--------7--------7----------|--------7--------7----------|
D||----------------------------|----------------------------|
A||----------------------------|----------------------------|
E||----------------------------|----------------------------|

--7--------7--------8----|--10--------10--------10--|-----|
-----8--------8----------|------8---------8---------|-----|
--------7--------7-------|---------7---------7------|-----|
-------------------------|--------------------------|-----|
-------------------------|--------------------------|-----|
-------------------------|--------------------------|-----|


[Verse (Chords):]

Em         C        G      Em          C     G
Stell dich vor meine Mitte | Leg dich in jede Figur
Em                C      G       D/F#    Em           C             G
Werf dich in jeden meiner Schritte | Ich Tanz für dich, wohin du willst
Em      C         G      D/F#   Em                C         G        D/F#
Ich geh, rüber ans Fenster | Um zu sehen ob, die Sonne noch scheint
Em             C        G       D/F#  Em     C           G      D/F#        
Hab so oft, bei schwerem Gewitter |         in deine Hände geweint


[Chorus:]

Em7           Cadd9          G      D5    Em7        Cadd9       G     D5
Wie soll ein Mensch das ertragen     |    Dich alle Tage zu sehen
Em7         Cadd9      G    D5            Em7        Cadd9       G     D5
Ohne es einmal zu wagen              |    Dir in die Augen zu sehen



Chorus Melody at sec. Chorus: 

--7--8--7--5--7--8--10--||
--8--8--8--7--8--8---8--||
--7--7--7--7--7--7---7--||
------------------------||
------------------------||
------------------------||


[Verse (Chords):]

Em         C        G      Em          C     G
Stell dich vor meine Mitte | Leg dich in jede Figur
Em                C      G       D/F#    Em           C             G
Werf dich in jeden meiner Schritte | Ich führe für dich, wohin du willst

[Chorus:]

Em7           Cadd9          G      D5    Em7        Cadd9       G     D5
Wie soll ein Mensch das ertragen     |    Dich alle Tage zu sehen
Em7         Cadd9      G    D5            Em7        Cadd9       G     D5
Ohne es einmal zu wagen              |    Dir in die Augen zu sehen zu sehen zu sehen
Em7           Cadd9          G      D5
Zu sehen
Em7           Cadd9          G      D5
Zu sehen                     
Em7           Cadd9          G      D5
Zu sehen                     
Em7           Cadd9          G      D5
Zu sehen                     
                     



Bridge
 
Em7            Cadd9      G      D5  Em7      Cadd9        G       D5
Könnt ich einen einzigen Tag nur  |  In meinem Leben dir gefallen
Em7        Cadd9     G       D5  Em7      Cadd9   G       D5
Um dann ein einziges Mal nur  |  In deine Arme zu fallen


Chorus = Outro

Em7           Cadd9          G      D5    Em7        Cadd9       G     D
Wie soll ein Mensch das ertragen     |    Dich alle Tage zu sehen
Em7         Cadd9      G    D5            Em7        Cadd9       G     D
Ohne es einmal zu wagen              |    Dir in die Augen zu sehen zu sehen zu sehen 
Em7           Cadd9          G      D5
Zu sehen
Em7           Cadd9          G      D5
Zu sehen                     
Em7           Cadd9          G      D5
Zu sehen                     
Em7           Cadd9          G      D5
Zu sehen         

[Instrumental]
Em7           Cadd9          G      D5
            

Em          C    G
Leg dich in jede Figur
Tap to rate this tab
# A B C D E F G H I J K L M N O P Q R S T U V W X Y Z