Song name
# A B C D E F G H I J K L M N O P Q R S T U V W X Y Z

Philippe Nix - Left On An Island tab

Left on an island

Break I
|----------------|----------------|----------------|----------------|
|----------------|----------------|----------------|----------------|
|7-5-7-57-7-57-5-|----------------|7-5-7-57-7-57-5-|----------------|
|----------------|7-5-7-57-7-57-5-|----------------|5---------------|
|----------------|----------------|----------------|----------------|
|----------------|----------------|----------------|----------------|

Break II
|----------------|----------------|----------------|----------------|
|----------------|----------------|----------------|----------------|
|7-5-7-57-7-57-5-|----------------|7-5-7-57-7-57-5-|----------------|
|----------------|7-5-7-57-7-57-5-|----------------|7-5-7-57-7-57-5-|
|----------------|----------------|----------------|----------------|
|----------------|----------------|----------------|----------------|

Refrain
|5---------------|3---------------|5---------------|3---------------|
|6---------------|5---------------|6---------------|5---------------|
|7---------------|5---------------|7---------------|5---------------|
|7---------------|5---------------|7---------------|5---------------|
|5---------------|3---------------|5---------------|3---------------|
|5---------------|3---------------|5---------------|3---------------|

Schlusston
|----------------|
|----------------|
|----------------|
|----------------|
|5---------------|
|----------------|

Verlauf
8 Takte Pause | Break II | Break I | 20 Takte Pause | 1x Refrain | Break II | Break I | 
8 Takte solo | 16 Takte Pause | 1x Refrain | Break II | Break I | Schlusston

Check out:
- http://www.youtube.com/Baskatballfreaky
- http://www.webnixe.net/Philippe
Tap to rate this tab
# A B C D E F G H I J K L M N O P Q R S T U V W X Y Z