Song name
# A B C D E F G H I J K L M N O P Q R S T U V W X Y Z

Philippine Violators - Sikat Na Si Pedro tab

Sikat na si Pedro
-Philippine Violators
-Tabbed by: Vendolph Galura
-incesticide0041@yahoo.com
-REsubmitted: 8-30-06

this is the correct version
and i tabbed this myself
the solo isn't done yet though...
but i'll post it ASAP...

Standard Tuning

bass intro: 2x

G|-----------------|-----------------|-----------------|-----------------|
D|-----------------|-----------------|-----------------|-----------------|
A|-----------------|-2-2-2-2-2-2-2-2-|-3-3-3-3-3-3-3-3-|-3-3-2-2-3-3-5-5-|
E|-3-3-3-3-3-3-3-3-|-----------------|-----------------|-----------------|

guitar1: 2x

e|-----------------|-----------------|-----------------|-----------------|
B|-----------------|-----------------|-----------------|-----------------|
G|-----------------|-4-4-4-4-4-4-4-4-|-5-5-5-5-5-5-5-5-|-5-5-4-4-5-5-7-7-|
D|-5-5-5-5-5-5-5-5-|-4-4-4-4-4-4-4-4-|-5-5-5-5-5-5-5-5-|-5-5-4-4-5-5-7-7-|
A|-5-5-5-5-5-5-5-5-|-2-2-2-2-2-2-2-2-|-3-3-3-3-3-3-3-3-|-3-3-2-2-3-3-5-5-|
E|-3-3-3-3-3-3-3-3-|-----------------|-----------------|-----------------|

riff A:

e|-15-15-15----------15-15-|-14-14-14----------14-14-|
B|----------15-15-15-------|----------15-15-15-------|
G|-------------------------|-------------------------|
D|-------------------------|-------------------------|
A|-------------------------|-------------------------|
E|-------------------------|-------------------------|

e|-15-15-15----------------|-15-14-12----------------|
B|----------17-17-17-15-15-|----------15-13-12-------|
G|-------------------------|-------------------14-12-|
D|-------------------------|-------------------------|
A|-------------------------|-------------------------|
E|-------------------------|-------------------------|

riff B:

e|-15-15-15----------15-15-|-14-14-14----------14-14-|
B|----------15-15-15-------|----------15-15-15-------|
G|-------------------------|-------------------------|
D|-------------------------|-------------------------|
A|-------------------------|-------------------------|
E|-------------------------|-------------------------|

e|-15-15-15----------------|-15-14-12----------------|
B|----------17-17-17-15-15-|----------15-13-15-13\---|
G|-------------------------|-------------------------|
D|-------------------------|-------------------------|
A|-------------------------|-------------------------|
E|-------------------------|-------------------------|

Verse: repeat as many times needed

e|-----------------|-----------------|-----------------|-----------------|
B|-----------------|-----------------|-----------------|-----------------|
G|-----------------|-----------------|-----------------|-----------------|
D|-----------------|-4-4-4-4-4-4-4-4-|-5-5-5-5-5-5-5-5-|-5-5-4-4-5-5-7-7-|
A|-5-5-5-5-5-5-5-5-|-2-2-2-2-2-2-2-2-|-3-3-3-3-3-3-3-3-|-3-3-2-2-3-3-5-5-|
E|-3-3-3-3-3-3-3-3-|-----------------|-----------------|-----------------|
pm . . . . . . . .   . . . . . . . .   . . . . . . . .   . . . . . . . . 

Chorus:

e|-----------------|-----------------|-----------------|-----------------|
B|-----------------|-----------------|-----------------|-----------------|
G|-4-4-4-4-4-4-4-4-|-5-5-5-5-5-5-5-5-|-4-4-4-4-4-4-4-4-|-5-5-5-5-5-5-5-5-|
D|-4-4-4-4-4-4-4-4-|-5-5-5-5-5-5-5-5-|-4-4-4-4-4-4-4-4-|-5-5-5-5-5-5-5-5-|
A|-2-2-2-2-2-2-2-2-|-3-3-3-3-3-3-3-3-|-2-2-2-2-2-2-2-2-|-3-3-3-3-3-3-3-3-|
E|-----------------|-----------------|-----------------|-----------------|

e|-----------------|-----------------|-----------------|-----------------|
B|-----------------|-----------------|-----------------|-----------------|
G|-4-4-4-4-4-4-4-4-|-5-5-5-5-5-5-5-5-|-4-4-4-4-4-4-4-4-|-7-7-7-7-7-7-7-7-|
D|-4-4-4-4-4-4-4-4-|-5-5-5-5-5-5-5-5-|-4-4-4-4-4-4-4-4-|-7-7-7-7-7-7-7-7-|
A|-2-2-2-2-2-2-2-2-|-3-3-3-3-3-3-3-3-|-2-2-2-2-2-2-2-2-|-5-5-5-5-5-5-5-5-|
E|-----------------|-----------------|-----------------|-----------------|

repeat riff A

riff C:

e|-15-15-15----------15-15-|-14-14-14----------14-14-|
B|----------15-15-15-------|----------15-15-15-------|
G|-------------------------|-------------------------|
D|-------------------------|-------------------------|
A|-------------------------|-------------------------|
E|-------------------------|-------------------------|

e|-15-15-15----------------|-------14-15-17-17-15\---|
B|----------17-17-17-15-15-|-15-17-------------------|
G|-------------------------|-------------------------|
D|-------------------------|-------------------------|
A|-------------------------|-------------------------|
E|-------------------------|-------------------------|

repeat Verse

Solo: do intro chords

the solo is not done yet. i'll post it as soon as possible.

repeat Chorus
repeat Verse

outro:

do riff A 3x

riff D:

e|-15-15-15----------15-15-|-14-14-14----------14-14-|
B|----------15-15-15-------|----------15-15-15-------|
G|-------------------------|-------------------------|
D|-------------------------|-------------------------|
A|-------------------------|-------------------------|
E|-------------------------|-------------------------|

e|-15-15-15----------------|----------14----14-15-17-|-15~~~~~~~~----|
B|----------17-17-17-15-15-|-15-15-17----------------|---------------|
G|-------------------------|-------------------------|---------------|
D|-------------------------|-------------------------|---------------|
A|-------------------------|-------------------------|---------------|
E|-------------------------|-------------------------|---------------|

that's it...
Tap to rate this tab
 
# A B C D E F G H I J K L M N O P Q R S T U V W X Y Z