Song name
# A B C D E F G H I J K L M N O P Q R S T U V W X Y Z

Philippine Violators - Hoy Hoy tab

hoy hoy hoy! solo
Philippine Violators
submitted by vendolph galura
incesticide0041@yahoo.com

this is much, much better than the other tab.
this is easier to read and comprehend.
the other tab is very wrong.

chords: C-Am-F-G

solo is in G mixolydian mode.

e|-------------------|-------------------|-----------------|---------|
B|-6/8---6---5h6p5---|-------------------|-----------------|---------|
G|-----------------7-|-7/9---7---5h7p5---|-5-------5h7p5---|-5/7~~~~~|
D|-------------------|-----------------7-|-----7---------7-|---------|
A|-------------------|-------------------|-----------------|---------|
E|-------------------|-------------------|-----------------|---------|


e|------------------|-------------------|-8---7------7-8-7-|-8/10~~~~|
B|-----8-----8-10-8-|-10---8-----8-10-8-|---------10-------|---------|
G|-7h9-----9--------|----------9--------|------------------|---------|
D|------------------|-------------------|------------------|---------|
A|------------------|-------------------|------------------|---------|
E|------------------|-------------------|------------------|---------|

    |--3--| |--3--| |--3--| |--3--|  =triplets
    |     | |     | |     | |     |  
e|--8h10h12p8h10h12p8h10h12p8h10h12--|           |-8h10~~~~~~-|
B|-----------------------------------|           |------------|
G|*---------------------------------*| 3x then   |------------|
D|*---------------------------------*|           |------------|
A|-----------------------------------|           |------------|
E|-----------------------------------|           |------------|

(its easier if you tap on the 12th fret)


e|-10/15----13----12---|-10----8---10-8-10-|
B|---------------------|-------------------|
G|---------------------|-------------------|
D|---------------------|-------------------|
A|---------------------|-------------------|
E|---------------------|-------------------|


e|-10/12----10----8---|--------------------|----------|
B|--------------------|-12----10---12-10---|-8~~~~~~~-|
G|--------------------|--------------------|----------|
D|--------------------|--------------------|----------|
A|--------------------|--------------------|----------|
E|--------------------|--------------------|----------|


(yehey! clap! clap! clap!)


Tap to rate this tab
# A B C D E F G H I J K L M N O P Q R S T U V W X Y Z