Song name
# A B C D E F G H I J K L M N O P Q R S T U V W X Y Z

Phillip Phillips - Home tab

                                 Home

*I take no credit, The intro I got from here and the rest i got off 
http://www.youtube.com/watch?v=JwZrsDTAH60 -took the time to tab it out because its a nice song.
*The reason I tabbed it is because I'm going to play it for Guitar class.

-When you start to strum the Chords do it fast,
 when you play the FM its easier not to Bar it.

Intro
  C                             Csus4
|--------------|--------------|--------------|-------------|
|----1---------|----1---------|----1---------|----1--------|
|---------0----|---------0----|---------0----|---------0---|
|----2------2--|----2------2--|----3------3--|----3------3-|  x2
|-3-----3------|-3-----3------|-3-----3------|-3-----3-----|
|--------------|--------------|--------------|-------------|

Verse
  C                             Csus4
|--------------|--------------|--------------|-------------|
|----1---------|----1---------|----1---------|----1--------|
|---------0----|---------0----|---------0----|---------0---|
|----2------2--|----2------2--|----3------3--|----3------3-|
|-3-----3------|-3-----3------|-3-----3------|-3-----3-----|
|--------------|--------------|--------------|-------------|

  C                             Csus4
|--------------|--------------|--------------|-------------|
|----1---------|----1---------|----1---------|----1--------|
|---------0----|---------0----|---------0----|---------0---|
|----2------2--|----2------2--|----3------3--|----3------3-|
|-3-----3------|-3-----3------|-3-----3------|-3-----3-----|
|--------------|--------------|--------------|-------------|

  C                             Csus4
|--------------|--------------|--------------|-------------|
|----1---------|----1---------|----1---------|----1--------|
|---------0----|---------0----|---------0----|---------0---|
|----2------2--|----2------2--|----3------3--|----3------3-|
|-3-----3------|-3-----3------|-3-----3------|-3-----3-----|
|--------------|--------------|--------------|-------------|

  C                             Csus4
|--------------|--------------|--------------|-------------|
|----1---------|----1---------|----1---------|----1--------|
|---------0----|---------0----|---------0----|---------0---|
|----2------2--|----2------2--|----3------3--|----3------3-|
|-3-----3------|-3-----3------|-3-----3------|-3-----3-----|
|--------------|--------------|--------------|-------------|

  Am                            Csus4
|--------------|--------------|--------------|--------------|
|----1---------|----1---------|----1---------|----1---------|
|---------2----|---------2----|---------0----|---------0----|
|----2------2--|----2------2--|----3------3--|----3------3--|
|-0-----0------|-0-----0------|-3-----3------|-3-----3------|
|--------------|--------------|--------------|--------------|

  C                             Csus4
|--------------|--------------|--------------|-------------|
|----1---------|----1---------|----1---------|----1--------|
|---------0----|---------0----|---------0----|---------0---|
|----2------2--|----2------2--|----3------3--|----3------3-|
|-3-----3------|-3-----3------|-3-----3------|-3-----3-----|
|--------------|--------------|--------------|-------------|

  C   C/B   Am   G      Am
|---------------------|--------------|--------------|--------------|
|---------1----1------|----1---------|----1---------|----1---------|
|----0--------------0-|---------2----|---------2----|---------2----|
|---------------------|----2------2--|----2------2--|----2------2--|
|-3----2----0---------|-0-----0------|-0-----0------|-0-----0------|
|----------------3----|--------------|--------------|--------------|

  F     C/E   G
|---------------------------|
|----1-----1----------------|
|----------------0-----0----|
|-3-----2-------------------|
|---------------------------|
|-------------3-----3-------|

  C
|--------------|--------------|--------------|--------------|
|----1---------|----1---------|----1---------|----1---------|
|---------0----|---------0----|---------0----|---------0----|
|----2------2--|----2------2--|----2------2--|----2------2--|
|-3-----3------|-3-----3------|-3-----3------|-3-----3------|
|--------------|--------------|--------------|--------------|

Strumming Patter - DDUDU for each chord

CM Csus4 CM Csus4 Am FM CM GM  X2


After that you play
     D   U          D   U         D   U
|--------------|--------------|--------------|--------------|
|----1---1-----|----1---1-----|---1---1------|--------------|Then To Am
|----0---0-----|----0---0-----|---0---0------|--------------|going DDUDU
|----2---2-----|----0---0-----|---0---0------|--------------|3 times
|-3------------|-2------------|-0------------|--------------|
|--------------|--------------|--------------|-3------------|

     D   U          D   U          D   U          D   U
|--------------|--------------|--------------|-------------|
|----1---1-----|----1---1-----|----1---1-----|----1---1----|Then to CM
|----0---0-----|----0---0-----|----0---0-----|----0---0----|going DDUDU
|-3------------|-2------------|-0------------|-0-----------|3 times
|--------------|--------------|--------------|-------------|
|--------------|--------------|--------------|-------------|


Then the Chorus is Pretty much this: DDUDU

FM x2
CM x2
Am x2
GM x2      Play this whole section 3x
FM x2
CM x2
GM x4

Strumming Patter - DDUDU

CM Csus4 CM Csus4 Am FM CM GM  X2


Once again you play:
     D   U          D   U         D   U
|--------------|--------------|--------------|--------------|
|----1---1-----|----1---1-----|---1---1------|--------------|Then To Am
|----0---0-----|----0---0-----|---0---0------|--------------|going DDUDU
|----2---2-----|----0---0-----|---0---0------|--------------|3 times
|-3------------|-2------------|-0------------|--------------|
|--------------|--------------|--------------|-3------------|

     D   U          D   U          D   U          D   U
|--------------|--------------|--------------|-------------|
|----1---1-----|----1---1-----|----1---1-----|----1---1----|Then to CM
|----0---0-----|----0---0-----|----0---0-----|----0---0----|going DDUDU
|-3------------|-2------------|-0------------|-0-----------|3 times
|--------------|--------------|--------------|-------------|
|--------------|--------------|--------------|-------------|


The chorus again:DDUDU

FM x2
CM x2
Am x2
GM x2      Play this whole section 3x
FM x2
CM x2
GM x4



*This song is for Arturo,David,Lawliet lol* and everybody else
Tap to rate this tab
# A B C D E F G H I J K L M N O P Q R S T U V W X Y Z