Song name
# A B C D E F G H I J K L M N O P Q R S T U V W X Y Z

Phillip Phillips - Cant Go Wrong tab

One of my students wanted to learn this cool guitar part. This is the intro and the verses. 


E |----------------------------|----------------------------|
B |--3-----3--3--3-----3--3----|-----------10---------------|
G |--0h-2--2--2--2h-4--4--4----|----------------------------|
D |----------------------------|-----------------0--0--0----|
A |----------------------------|----------------------------|
E |----------------------------|--10s-----------------------|


----------------------------|-----------10---------------||
----------------------------|----------------------------||
-----------0--0-------------|--------0--------0----------||
--------0--------0--0--0----|--------x--------0--0--0----||
--9--------------9--9--9----|--7-------------------------||
----------------------------|----------------------------||
Tap to rate this tab
# A B C D E F G H I J K L M N O P Q R S T U V W X Y Z