Song name
# A B C D E F G H I J K L M N O P Q R S T U V W X Y Z

Phillip Phillips - So Easy tab

Intro x4:
e|-----------------------------------------------------------------------------|
B|----------12---12---------12---12----------10---10--------10---10------------|
G|--------0----0----------0----0-----------0----0---------0----0---------------|
D|-----------------------------------------------------------------------------|
A|----10-------------10----------------9--------------9------------------------|
E|-----------------------------------------------------------------------------|

e|-----------------------------------------(0)---(0)-----------(0)---(0)----------|
B|----------8----8---------8----8----------1----1------------1----1---------------|
G|--------0----0---------0----0----------0----0------------0----0-----------------|
D|--------------------------------------------------------------------------------|
A|----7---------------7----------------3--------------3---------------------------|
E|--------------------------------------------------------------------------------|

(Let C ring before chorus)

G               D
 You make it so, you make it so
Em              C
 You make it so easy
G               D
 This letting go is so beautiful
Em                    C
 Cause you make it so easy
           G     D
To fall so hard,
           Em    C
To fall so hard
Tap to rate this tab
# A B C D E F G H I J K L M N O P Q R S T U V W X Y Z