Song name
# A B C D E F G H I J K L M N O P Q R S T U V W X Y Z

Phillip Phillips - Cant Go Wrong tab

Capo - Fret 2

E|-----------------|--------------------|-----------------------|
B|-3---3-3---3-3-3-|-----10-10--10-10-10|----10-10--10-10-10----|
G|-0h2-2-2---2-2-2-|-----0--0---0--0--0-|-0--0--0---0--0--0-----|
D|-0---0-0---0-0-0-|--------------------|-----------------------|
A|-----------------|-3/9----------------|-9---------------------|
E|-----------------|--------------------|-----------------------|

E|------10--10-10-10-|
B|------10--10-10-10-|
G|------0---0--0--0--|
D|-------------------|
A|-7--7--------------|
E|-------------------|

Also repeated throughout verses, if anyone can figure the chords used in the choruses 
and just after the intro, please let me know, thanks.
Tap to rate this tab
# A B C D E F G H I J K L M N O P Q R S T U V W X Y Z