Song name
# A B C D E F G H I J K L M N O P Q R S T U V W X Y Z

Phillip Phillips - So Easy tab

I loved this song the first time I heard it.
I was looking at the other version of this tab and in this version I added a few notes. 
This isn't 100% correct but it sounds pretty close.

Inro & Verses
  G                                     D
e|---------------------------|---------------------------|
B|------12----12----12----12-|------10----10----10----10-|
G|-----0-----0-----0-----0---|-----0-----0-----0-----0---|
D|---12----12----12----12----|---8-----8-----8-----8-----|
A|-10------------------------|-9-------------------------|
E|---------------------------|---------------------------|

  Em                          C
e|---------------------------|---------------------------|
B|-------8-----8-----8-----8-|-------1-----1-----1-----1-|
G|-----0-----0-----0-----0---|-----0-----0-----0-----0---|
D|---9-----9-----9-----9-----|---2-----2-----2-----2-----|
A|-7-------------------------|-3-------------------------|
E|---------------------------|---------------------------|
Tap to rate this tab
# A B C D E F G H I J K L M N O P Q R S T U V W X Y Z