Song name
# A B C D E F G H I J K L M N O P Q R S T U V W X Y Z

Philmont - My Hippocratic Oath tab

-------------------------------------------------------------
            My Hippocratic Oath - Philmont
-------------------------------------------------------------
Song: My Hippocratic Oath
Artist: Philmont
Album: Oh Snap
Track #04
Both Guitars Standard Tuning

Intro Part 1:
e|-----------------------------|
B|-----------------------------|
G|-----------------------------|
D|--------------------8--------|
A|-------6-------8h10--10-8s6--|
E|--8-88---8-6-6---------------|
      **

e|-------------------------------|
B|-------------------------------|
G|-------------------------------|
D|--------------------8----8h10--|
A|-------6h8-----8h10---10-------|
E|--8-88-----6-6-----------------|
      **

e|------------------------------|
B|------------------------------|
G|------------------------------|
D|--------------------8---------|
A|-------6-------8h10---10-8s6--|
E|--8-88---8-6-6----------------|
      **

e|--------------|
B|--------------|
G|--------------|
D|--------------|
A|-------6h8----|
E|--8-88-----6--|
      **

Intro Part 2   (Guitar 1)
e|---------------------------------|
B|---------------------------------|
G|---------------------------------|
D|--10-101010-10-88------8---------|
A|--10-101010-10-88-8h10---10-8s6--|
E|-- 8- 8 8 8- 8-66----------------|
        * * *

e|----------------------------------|
B|----------------------------------|
G|----------------------------------|
D|--10-101010-10-88------8----8h10--|
A|--10-101010-10-88-8h10---10-------|
E|-- 8- 8 8 8- 8-66-----------------|
        * * *

e|------------------------------------|
B|------------------------------------|
G|------------------------------------|
D|--10-101010-10-88------8---------6~-|
A|--10-101010-10-88-8h10---10-8s6--6~-|
E|-- 8- 8 8 8- 8-66----------------4~-|
        * * *

(Guitar 2)
e|-------------------------|
B|-------------------------|
G|-------------------------|
D|--10-101010-10-88888888--| x3
A|--10-101010-10-88888888--|
E|-- 8- 8 8 8- 8-66666666--|
        * * *

e|------|
B|------|
G|------|
D|--6~--|
A|--6~--|
E|--4~--|

This song is kinda hard but once you get the hang of it 
it sounds awesome. I'm working on the rest of the song 
but it's coming slow so it might be a while. Please RATE and comment.

http://www.myspace.com/philmontrock
Tap to rate this tab
# A B C D E F G H I J K L M N O P Q R S T U V W X Y Z