Song name
# A B C D E F G H I J K L M N O P Q R S T U V W X Y Z

Philmont - The Difference tab

-------------------------------------------------------------------------------
			     THE DIFFERENCE - Philmont
-------------------------------------------------------------------------------
Tabbed by: Factor13x
Email: iwildcatbaseball@aol.com

Tuning: Standard

Intro:
e|---------------------------------------------------------------------------------------|
B|---------------------------------------------------------------------------------------|
G|--15------13------11------15------13------18------15------13------11------131315151313-|
D|---x-(x8)--x-(x4)--x-(x4)--x-(x8)--x-(x4)--x-(x4)--x-(x8)--x-(x4)--x-(x4)--x-x-x-x-x-x-|
A|--13------11-------9------13------11------16------13------11-------9------111113131111-|
E|---------------------------------------------------------------------------------------|

Verse: (not so sure what the picking pattern is but I just arpeggiate the chords and it 
good)
e|--------------------------------------|
B|--------------------------------------|
G|--6-----9----------6-6----9-9---------|
D|--6--7--9--9-------6-6-77-9-9-99------|
A|--4--7--7--9--(x2)-4-4-77-7-7-99-(x2)-|
E|-----5-----7-----------55-----77------|

Chorus:
e|-------------------------------------------------------------------------|
B|-------------------------------------------------------------------------|
G|--3--------------------3-------------6------3-3-3-33-4-4-4-44------------|
D|--3-(x8)-6------4------3-(x8)-6------6-(x4)-3-3-3-33-4-4-4-44-4-4-4-44-6-|
A|--1------6-(x4)-4-(x4)-1------6-(x4)-4------1-1-1-11-2-2-2-22-4-4-4-44-6-|
E|---------4------2-------------4-------------------------------2-2-2-22-4-|

Intro

Verse

Chorus

Bridge: (I don't know the lead part so feel free to figure it out)
e|------------------------------------|
B|------------------------------------|
G|--6666------2222--------444444------|
D|--6666-2222-2222-222222-444444-(x2)-|
A|--4444-2222-0000-222222-222222------|
E|-------0000------000000-------------|

Chorus x2

Intro


Have fun its a great song and fun to play.
Tap to rate this tab
# A B C D E F G H I J K L M N O P Q R S T U V W X Y Z