Philmont - Back Down tab

Artist: Philmont
Album: Attention
Song: Back Down
Tuning: Eb tuning (Eb Ab Db Gb Bb eb)


Hey everyone I did not actually tab this this was actually posted by the bands guitarist 
and I'm just posting it on here so enjoy.


|--------------------------------------------------------------------|
|--------------------------------------------------------------------|
|------------------66----66----666644----44----44442-2-2222-4444444--|
|--22----22----222266----66----666644----44----44442-2-2222-4444444--|
|--22----22----222244----44----444422----22----22220-0-0000-2222222--|
|--00----00----0000--------------------------------------------------|


|----------------------|
|----------------------|
|----------------------|
|--2~------------------|
|--2~------------------|
|--0~------------------|


|-----------------------------------------------------------------------|
|-----------------------------------------------------------------------|
|---------------666--------------------------------666------------------|
|--2--22222222226667--77777777779992--2--22222222226667--7777777777999--|
|--2--22222222224447--77777777779992--2--22222222224447--7777777777999--|
|--0--0000000000---5--55555555557770--0--0000000000---5--5555555555777--|
      **********      **********         **********      **********

Pre-Chorus:
|--------------------------------------------------------------------|
|--------------------------------------------------------------------|
|--6--6---------------4--4--------------2--2--------------2----------|
|--6--6---------------4--4--------------2--2--------------2----------|
|--4--4---------------2--2--------------0--0--------------0----------|
|--------------------------------------------------------------------|
|
|--------------------------------------------------------------------|
|------------------------------------------------------------9-7-----|
|-------------13b14r13-----------13b14r13----------13b14r13------9---|
|--11---13-14--------------13-14-------------13-14---------99-9-9----|
|---------------------14----------------12---------------------------|
|--------------------------------------------------------------------|
   *    *   *          *   *   *         *    *  *         ** * *

Chorus: x2
|-------------------------------------------------------------xxxx--|
|-------------------------------------------------------------xxxx--|
|--99999999999999998888888888888886666666666666666444444444444xxxx--|
|--99999999999999998888888888888886666666666666666444444444444xxxx--|
|--77777777777777776666666666666664444444444444444222222222222xxxx--|
|-------------------------------------------------------------xxxx--|
|
|--4p0-4p0-4p0-4p0-4h5p4p0-2p0-2p0-2p0-2p0-2h4p2p0---|
|-----0---0---0---0-----------0---0---0---0----------|
|----------------------------------------------------|
|----------------------------------------------------|
|----------------------------------------------------|
|----------------------------------------------------|


|--------------------------------------------------------------------|
|--------------------------------------------------------------------|
|------------------66----66----666644----44----44442-2-2222-4444444--|
|--22----22----222266----66----666644----44----44442-2-2222-4444444--|
|--22----22----222244----44----444422----22----22220-0-0000-2222222--|
|--00----00----0000--------------------------------------------------|

|----------------------------------------------------------------------------|
|--9-9-9--7--7-7--10--10-10--10--10-7--9-9-9--7--7-7--10--10-10--10-7-7-7-7--|
|---9-9-99-99-9-99--99--9--99--99--9-99-9-9-99-99-9-99--99--9--99----9-9-9---|
|----------------------------------------------------------------------------|
|----------------------------------------------------------------------------|
|----------------------------------------------------------------------------|
   **************** *** ** *** *** *************** *** ** ***

|-----------------------------------------------------------------------|
|-----------------------------------------------------------------------|
|---------------666--------------------------------666------------------|
|--2--22222222226667--77777777779992--2--22222222226667--7777777777999--|
|--2--22222222224447--77777777779992--2--22222222224447--7777777777999--|
|--0--0000000000---5--55555555557770--0--0000000000---5--5555555555777--|
|     **********      **********         **********      **********
|
|--------------------------------------------------------------------------|
|--h12-p5h10p5h9p7p5h10--p5h9p5h7p5p0-h12-p5h10p5h9p7p5h10--p5h9p5h7p5p0---|
|--------------------------------------------------------------------------|
|--------------------------------------------------------------------------|
|--------------------------------------------------------------------------|
|--------------------------------------------------------------------------|

Pre-Chorus
Chorus

|----------------------|
|----------------------|
|----------------------|
|--2~------------------|
|--2~------------------|
|--0~------------------|

|------------------------------------------------------------|
|------------------------------------------------------------|
|------------------66----66----66--44----44----44--22222222--|
|--22----22----22--66----66----66--44----44----44--22222222--|
|--22----22----22--44----44----44--22----22----22--00000000--|
|--00----00----00--------------------------------------------|
   **    **    **  **    **    **  **    **    **

Chorus x2
Tap to rate this tab
 
# A B C D E F G H I J K L M N O P Q R S T U V W X Y Z