Philmont - Another Name tab

Artist: Philmont
Album: Attention
Song: Another Name
Tuning: Eb (Eb Ab Db Gb Bb eb)

|------------------0---|
|--------3-------------|
|------2-----2---2-----|
|--0-----------0-------|
|----------------------|
|----------------------|

Verse 1:
|--------------------------------------------------------------0-----|
|--------3-------3---------3-------------------------3---------------|
|------2-------2---------4---4---4-----------------2-----2---2-------|
|--0-------------------4-------4---------2-----0-----------0---------|
|----------4-------2---------------2-----0---------------------------|
|--------------------------------------------------------------------|

|---------------------------------------------------------------------------|
|--------3-------3---------3---------------------3----------------3p2-------|
|------2-------2---------4---4---4------------------0---0-------2-----2-----|
|--0-------------------4-------4---------------0------0-------2---------2---|
|----------4-------2---------------2----------------------0-----------------|
|-------------------------------------------3-------------------------------|

|--------------------------------------------------5-----------|
|--------3---------------3---------------5---------------------|
|------------0---0-----------0---0-----------2---2-------------|
|------0-------0-------0-------0-------2-------2---------------|
|----------------------------------0---------------------------|
|--3---------------3-------------------------------------------|

  Bm         G      D              A             Bm
Breathe     in     now          receive another name

   G               D       Asus4  A
Receive another  name--------

  Bm         G      D              A             Bm
Breathe     in     now          live without the blame

  G                D       A      G
Live without the blame--------


Turn:
|--------3-----2-------------|
|--------3-----3-------------|
|------0---------------------|
|--0---------0---------------|
|--x-------------------------|
|--3-------------------------|

   D       D/C#    Bm               A        D    Dsus2
I know you haven't figured out what happens next

      D       D/C#      Bm
You feel like you have lost your way

                  G                 A
'Cause you don't know which way to step

                G                                  A
It feels like every time you try to walk you only crawl

                   Bm                                A/C#
Just open up your eyes and know that I won't let you fall


Pre-Chorus ("just open up your eyes"):
|---------------------------------------|
|---------------------------------------|
|--4-4-4-4-4-4-4-4-6-6-6-6-7-7/9-\\-----|
|--x-x-x-x-x-x-x-x-x-x-x-x-x-x/x-\\-----|
|--2-2-2-2-2-2-2-2-4-4-4-4-5-5/7-\\-----|
|---------------------------------------|


Bridge: RHYTHM
|----------------------------------------------------------------------|
|----------------------------------------------------------------------|
|-----------------------------------7-7-7-7-7-7-7-7--------------------|
|--2222xx2222xx2-4--5555xx5555xx55557-7-7-7-7-7-7-7-7-7-7-7-7-7-7------|
|--2222xx2222xx2-5--5555xx5555xx55555-5-5-5-5-5-5-5-7-7-7-7-7-7-7------|
|--0000xx0000xx0-2--3333xx3333xx3333----------------5-5-5-5-5-5-5-3-2--|
     Em         D/F#  G               D               A  


Bridge (starting at "you have all been livin'"): LEAD
|-------------------------------------------------------------------|
|--------(7)---------(12)----------------(7)---------(12)-----------|
|--(5)---------(7)-----------------(5)---------(7)------------------|
|-------------------------------------------------------------------|
|-------------------------------------------------------------------|
|-------------------------------------------------------------------|

|----------------------------------(12)-----------------------------|
|--------(7)--------------------------------------------------------|
|--(5)---------(7)------------------------(7)-----------------------|
|---------------------(7)-----------------------(7)-----------------|
|-------------------------------------------------------------------|
|-------------------------------------------------------------------|

|-------------------------------|
|--------------(7)--------------|
|--66667777999----(7)-----------|
|--xxxxxxxxxxx-------(7)--------|
|--44445555777------------------|
|-------------------------------|


Final Choruses: LEAD
|------------------------------------------------|
|------------------------------------------------|
|--7-7-7-7/9/12-12-12-7-9-11111111/12\9-9-9-9/11-|
|--x-x-x-x/x/x--x--x--x/x/x-x-x-x-/x-\x-x-x-x/x--|
|--5-5-5-5/7/10-10-10-5/7/9-9-9-9-/10\7-7-7-7/9--|
|------------------------------------------------|

|---------------------------------------------|
|---------------------------------------------|
|--7-7-7-7/9\7-7-7-7/9/11111111/12\9-9-9-9/11-|      all 2x
|--x-x-x-x/x\x-x-x-x/x/x-x-x-x-/x-\x-x-x-x/x--|
|--5-5-5-5/7\5-5-5-5/7/9-9-9-9-/10\7-7-7-7/9--| 
|---------------------------------------------|


Outro:
|--------3-----2-------------------3-----2-----|
|--------3-----3-------------------3-----3-----|
|------0-----------------0-------------0-------|
|--0---------0-------------0-----0-------------|
|--x-------------------------------------------|
|--3-------------------------3-----------------|


|-------------------------------------------------2---|
|--------3-------3---------3---------------------3----|
|------2-------2---------4---4---4--------------2-----|
|--0-------------------4-------4---------2-----0------|
|----------4-------2---------------2-----0------------|
|-----------------------------------------------------|
Tap to rate this tab
 
# A B C D E F G H I J K L M N O P Q R S T U V W X Y Z