Song name
# A B C D E F G H I J K L M N O P Q R S T U V W X Y Z

Philmont - The Last Song tab

-------------------------------------------------------------------------------
			     Philmont - The Last Song
Capo 2

Tuning:Standard

Verse

e|-------0---------0-------------0----------------0-------------0---------0--|
B|---0--------0----------0----------------0--------------0-------------0-----|
G|-2---2---1----1------------------------------------------------------------|
D|--------------------2-----2--------1--------1------------------------------|
A|----------------------------------------------------4-----4-------4----4---|
E|---------------------------------------------------------------------------|

e|---------------0---------------------0--------0---------0------------------|
B|-------0-------------0------0----0--------0--------0---------0------0------|
G|-------------------------1----2---2----2----2---2----2----2----------------|
D|---------------------------------------------------------------------------|
A|--4-------4-------4----------------------------------------------4---------|
E|---------------------------------------------------------------------------|

e|------------0------------0-------------0-----------------------------------|
B|----0-------------0-------------0-------------0----------------------------|
G|---------------------------------------------------------------------------|
D|---------------------------------------------------------------------------|
A|-2-----2------2------2------2-----2-------2--------------------------------|
E|---------------------------------------------------------------------------|


Intro

        A        B        C#         E             D#
e|--------------------------------------------------------0-------0------------|
B|-----2---------0---------0--------0-----------------------------0------------|
G|-------------------4--------------------------------8------8-----------------|
D|---------2------------------6---------9---------9------------9---------------|
A|-----0---------2--------4---------7----------6-------------------------------|
E|-----------------------------------------------------------------------------|


Chorus

        E            B          A         C#           B
e|-----0-------------0-----------0----------0------------0-------------------|
B|-----0-------------0-----------0----------0------------0-------------------|
G|-----1-------------4-----------2----------6------------4-------------------|
D|-----2-------------4-----------2----------6------------4-------------------|
A|-----2-------------2-----------0----------4------------2-------------------|
E|-----0-------------x-----------0----------0------------0-------------------|

        E            B           C#          B            A
e|------0-------------0------------0----------0-------------0----------------|
B|------0-------------0------------0----------0-------------0----------------|
G|------1-------------4------------6----------4-------------2----------------|
D|------2-------------4------------6----------4-------------2----------------|
A|------2-------------2------------4----------2-------------0----------------|
E|------0-------------0------------0----------0-------------0----------------|


Thanks check out my youtube cover of the song if you need a little help. Thanks have a great day!

************************************

| /   slide up
| \   slide down
| h   hammer-on
| p   pull-off
| ~   vibrato
| +   harmonic
| x   Mute note
| b   Bend
| pb  Pre-bend
| br  Bend release
| pbr Pre-bend release
| brb Bend release bend

************************************
Tap to rate this tab
 
# A B C D E F G H I J K L M N O P Q R S T U V W X Y Z