Song name
# A B C D E F G H I J K L M N O P Q R S T U V W X Y Z

Phineas And Ferb - Carl tab

     This isn't exactly it but if you learn this you can find the mistakes and figure 
out(you know).Anyway, I hope you enjoy playing this. It's onne of my favorite Phineas and 
songs.

                   Remember tune your guitar in D. Okay? Okay! Bye!

                                  p= pull off
                                  r= release bend
                                  b= bend
                                  *= pinch harmonic

This is the lead stuff.

e-----------15b17-17---------------------------------------------|
b-----15b17------------------------------------------------------|
g--------------------14b15r14-14-14-14*-14*-15p14p12-------------|
d----------------------------------------------------12/---------|
a----------------------------------------------------------------|
e----------------------------------------------------------------|

e----------------------------------------------------------------|
b------15b17-----------------------------------------------------|
g----------------------------------------------------------------|
d----------------------------------------------------------------|
a----------------------------------------------------------------|
e----------------------------------------------------------------|

I've figured out the rest but i don't feel like putting it on today. Maybe another.


Here is the Rhythm part.

Just kidding I'll do that another day too. Check in each day for changes.
Tap to rate this tab
 
# A B C D E F G H I J K L M N O P Q R S T U V W X Y Z