Song name
# A B C D E F G H I J K L M N O P Q R S T U V W X Y Z

Phinehas - I Am The Lion tab

Hey, look Phinehas up on :
Myspace: http://www.myspace.com/phinehasrock

Facebook: http://www.facebook.com/Phinehasrock

Youtube (i am the lion song):http://www.youtube.com/watch?v=p13iox58z-Q&feature=related


I am not in this band, i just figured out the intro:


||--------------------------|-----------------------------|
||o-------------------------|-----------------------------|
||--------------------------|-----------------------------|
||---0~---------------------|-----------------3~----------|
||o--0~-8--7--5----8--7--5--|---3---3--5~-----3~--8--7--5-|
||---0~----------0----------|-0---0-----------3~----------|


----------------------------||
---------------------------o||
----------------------------||
-5~--------------5---5-h-7~-||
-5~--10--8--7--------------o|| 
-5~------------5---5--------||

it repeats now while the rhythm guitar goes like this:


||--------------------------|----------------------------|
||--------------------------|----------------------------|
||--------------------------|----------------------------|
||---0~---------------------|----------------3~----------|
||---0~---------------------|----------------3~----------|
||---0~---------------------|----------------3~----------|


----------------------------|
----------------------------|
----------------------------|
-5~-------------------------|
-5~-------------------------|
-5~-------------------------|

----------------------------|-----------------------------|
----------------------------|-----------------------------|
----------------------------|-----------------------------|
---0~-----------------------|-----------------------------|
---0~-----------------------|-----------------------------|
---0~-----------------------|---------------3--3----------|


----------------------------|
----------------------------|
----------------------------|
----------------------------|
----------------------------|
-5-5-5------------5-5-5-5-5-|


and then the first guitar is just doing that same riff and the rhythm guitar changes slightly:



||--------------------------|-------------------------------|
||--------------------------|-------------------------------|
||--------------------------|-------------------------------|
||---0--0------0-0-0--------|---3--3-------5-5-5------------|
||---0--0------0-0-0--------|---3--3-------5-5-5------------|
||---0--0------0-0-0--------|---3--3-------5-5-5------------|



and it continues on and there is a harmonized guitar that comes in:



||--------------------------|-----------------------------|
||o-------------------------|-----------------------------|
||--------------------------|-----------------------------|
||---0~--8--6--4----8--6--4-|---3---3--4------3~--8--6--4-|
||o--0~---------------------|-----------------3~----------|
||---0~-----------0---------|-0---0-----------3~----------|




----------------------------||
---------------------------o||
----------------------------||
-5~--9--8--6-----6---6-h-8~-||
-5~------------------------o|| 
-5~------------5---5--------||


well thats all i have figured out, if i figure more out ill tab that aswell


http://www.myspace.com/phinehasrock
http://www.facebook.com/Phinehasrock


Tap to rate this tab
# A B C D E F G H I J K L M N O P Q R S T U V W X Y Z