Song name
# A B C D E F G H I J K L M N O P Q R S T U V W X Y Z

Phinehas - Wwii tab

(/) Slide Up  (\) Slide Down  (h) Hammer On  (p) Pull Off  (b) Bend (r) Release (v) Vibrato

Capo on 1st Fret


E|-----0-----0-----0-----0-----------------------------------------------------------------|
B|-----------------------------3-----3-----3-----3-----3-----3-----3-----3-----3-----2-----|
G|--------0-----0-----0-----0--------------------------------------------------------------|
D|--------------------------------4-----4-----4-----------4-----4-----4-----------2-----2--|
A|--2-----------------------------------------------------------------------0--------------|
E|--------------------------------------------------0--------------------------------------|



E|--------------------------------------------------------------------------------------|
B|--2-----2-----2-----3-----2-----0-----------0-----------------------3-----------------|
G|--------------------------------------2-----------2-----0-----0-----------------------|
D|-----2-----------2-----------2-----------0-----0-----0---------------------4----4-----|
A|-----------------------------------------------------------2-----2-----2-----2-----2--|
E|-----------2-----------2-----------5--------------------------------------------------|



E|--------------------------|
B|-----------3--------------|
G|-----0--------------------|
D|--------------4-----4-----|
A|--0-----0--------0-----0--|
E|--------------------------|

                                                        http://www.guitartabcreator.com
Tap to rate this tab
# A B C D E F G H I J K L M N O P Q R S T U V W X Y Z