Song name
# A B C D E F G H I J K L M N O P Q R S T U V W X Y Z

Phish - Talk tab

----------------------------------------------------------------------------
			     Talk - Phish
----------------------------------------------------------------------------
Tabbed by: Jon Martin
Email: jonmartin_21@hotmail.com

Tuning:Standard [EADGBe]

e|------------------------------------------------------------------------|
B|-1-1---1-1----------1-1-1-1-0-0-0-0-------------------------------------|
G|-0--0--0--0-REPEAT--0-0-0-0-0-0-0-0-3-3-3-3-2-2-2-2-1-1-1-1-0-0-0-------|
D|-2---2-2---2--------2-2-2-2-2-2-2-2-2-2-2-2-2-2-2-2-2-2-2-2-2-2-2-------|
A|-3-----3------------3-3-3-3-3-3-3-3-3-3-3-3-3-3-3-3-3-3-3-3-3-3-3-------|
E|------------------------------------------------------------------------|

e|---------------------------------------------------------------------------|
B|---------------------------------------------------------------------------|
G|-0-------------------------------------------------------------------------|
D|-2-4-4-4-4-3-3-3-3---------------------------------------------------------|
A|-3-3-3-3-3-3-3-3-3---------------------------------------------------------|
E|---------------------------------------------------------------------------|
Tap to rate this tab
 
# A B C D E F G H I J K L M N O P Q R S T U V W X Y Z