Song name
# A B C D E F G H I J K L M N O P Q R S T U V W X Y Z

Phish - Llama tab

-------------------------------------------------------------------------------
			     Llama - Phish
-------------------------------------------------------------------------------
Tabbed by: Pauly S
Email: Pscarinci@aol.com


   Em7   Em7+9 A9    F#m7  Fmaj7  A7#9
E---12----14----12----14---------------------------------------------
B---12----12----12----14----13-----13--------------------------------
G---12----12----12----14----14-----12--------------------------------
D---12----12----11----14----14-----11--------------------------------
A---------------12-----------------12--------------------------------
E---12----12----------14----13---------------------------------------

RHYTHM

INTRO

   Em7
|  /    /    /    /   |   /    /    /    /   |   /    /    /    /   |

             Em7+9        Em7
|  /    /    /    /   |   /    /    /    /   |   /    /    /    /   |


VERSE
Em7
Sunrise over the turquoise mountains   Messenger birds in sight  
They came up through the valley   Both sides at a time
A9
Through the cold steady rain   Raid!  I bend down  
Em7                                          
Poke a double decker on a llama Taboot  Poke  
F#m7 
Llama, Taboot Taboot  Trigger a blastoplast, ramshackle laker recedes
Fmaj7                      A7#9
I start to run (re)cedes  It was the loudest thing I'd ever heard   
And I knew my time had come   To enter the delta

CHORUS

   Em7
|  /    /    /    /   |   /    /    /    /   |   /    /    /    /   |
   Leave                  Llama                  Leave

                          A9
|  /    /    /    /   |   /    /    /    /   |   /    /    /    /   |
   Llama                  Leave                  Llama

   Em7                                           F#m7
|  /    /    /    /   |   /    /    /    /   |   /    /    /    /   |
   Leave                  Llama                  Leave

   Fmaj7                  Em7
|  /    /    /    /   |   /    /    /    /   |   /    /    /    /   |
   Llama                  Leave                  Llama

The riff that goes by during the intro and returns again to finish the
song goes like this:
                                            P-O       P-O
E-------------------------------------------|------------------------
B-------------------------------------------|------------------------
G---14---12---------------------------------|------------------------
D-------------14---13---12------------------|------------------------
A----------------------------15---14---13---|12---10---12---10-------
E-------------------------------------------|------------------------
        *P-O means pull-off


===============================================================================
Tap to rate this tab
# A B C D E F G H I J K L M N O P Q R S T U V W X Y Z