Song name
# A B C D E F G H I J K L M N O P Q R S T U V W X Y Z

Phish - Sand tab

Help us improve GuitareTab! Take a short survey!
-------------------------------------------------------------------------------
			     Sand - Phish
-------------------------------------------------------------------------------

Tabbed By : Pauly S

h  = hammer-on
/  = slide up/down
~  = vibrato

 Funk Intro     Main Riff
E|-5-x-x-x--x-||-5-x---------|-5-x---------|-5-x---------|
B|-5-x-x-x-10\||-5-x---------|-5-x---------|-5-x---------|
G|-6-x-x-x--9\||-6-x-5~------|-6-x-5~------|-6-x-5~------|
D|-7-x-x-x-11\||-7-x---5-5h7-|-7-x---5-5h7-|-7-x---5-5h7-|
A|----------x-||-------------|-------------|-------------|
E|----------x-||-------------|-------------|-------------|


                            Let Ring
E|-------------------||-0/5------------5---||---------|
B|-------------------||-----5--------5---5-||---------|
G|-------xxx-5-------||--------------------||---------|
D|5-55-5555x---7-----||--------------------||---------|
A|-------------------||--------------------||---------|
E|-------------------||--------------------||---------|


As far as the solo goes, just keep up the funk in A

===============================================================================
Related for Sand tab