Song name
# A B C D E F G H I J K L M N O P Q R S T U V W X Y Z

Phish - Character Zero tab

Help us improve GuitareTab! Take a short survey!
-----------------------------------------------------------------------------
			     Character Zero - Phish
-----------------------------------------------------------------------------
Tabbed by:Richay (richay77@hotmail.com)


Tuning:Standard- E A D G B e

***Intro***
e|-------------------------------------------------------------------------|
B|----------------------3~------------------------2~-----------------------|
G|-------------------------------------------------------------------------|
D|-----2p0--5-2-0-2-5-2-----------2p0-5-2-0-2-5-2--------------------------|
A|-------------------------------------------------------------------------|
E|-3p0-------------------------3p0-----------------------------------------|

***Chorus***
    E    G    A
e|--0----------------------------------------------------------------------|
B|--0----------------------------------------------------------------------|
G|--1----4----6------------------------------------------------------------|
D|--2----X----X------------------------------------------------------------|
A|--2----5----7------------------------------------------------------------|
E|--0----3----5------------------------------------------------------------|

***Verse***
   E    G    A
e|--0----------------------------------------------------------------------|
B|--0----------------------------------------------------------------------|
G|--1----4----6------------------------------------------------------------|
D|--2----X----X------------------------------------------------------------|
A|--2----5----7------------------------------------------------------------|
E|--0----3----5------------------------------------------------------------|

For the solo he's just improvising so just fool around in E and use a Wah if you have one.
Related for Character Zero tab