Song name
# A B C D E F G H I J K L M N O P Q R S T U V W X Y Z

Phish - Harry Hood tab

Help us improve GuitareTab! Take a short survey!
#----------------------------------PLEASE NOTE---------------------------------#
#This file is the author's own work and represents their interpretation of the #
#song. You may only use this file for private study, scholarship, or research. #
#------------------------------------------------------------------------------##
#

DATE: WEDNESDAY FEB. 21, 2007 TABBED BY BRAD MELBARDIS

THE DISTORTION PART TO THIS SONG IS LIKE THIS:

E]-----------------------------------------------------------------------------------|
B]----------------------6--5----3---------3---------3-----------3----6--5---3--------|
G]-------------5--4-----------------4-/-5------4-/-5-----4-/-5-----------------------|
D]-----4--3--------------------------------------------------------------------------|
A]-2---------------------------------------------------------------------------------|
E]-----------------------------------------------------------------------------------|


E]---------------------------------------------------------------------------------------|
B]---------3-----------3------6--5----3-----------3----------3-----------3---------------|
G]-4-/-5-------4-/-5------4---------------4-/-5-------4-/-5-------4-/-5------------------|
D]---------------------------------------------------------------------------------------|
A]---------------------------------------------------------------------------------------|
E]---------------------------------------------------------------------------------------|

E]---------------------------------------------------------------------------------|
B]--6---5----3-----------3----------3---6---5----3----6----5-----3----------3------|
G]----------------4-/-5-------4-/-5---------------------------------4-/-5-------4--|
D]---------------------------------------------------------------------------------|
A]---------------------------------------------------------------------------------|
E]---------------------------------------------------------------------------------|

REPEAT A WHOLE STEP UP FROM THE STARTING NOTE (B), SO A (C#) ON THE SECOND ROUND. THEN A 
STEP UP FOR THE THIRD ROUND, A (D#). END ON A (E) NOTE INSTEAD OF A (D#)FOR THE THANK 
MR MINOR HARMONIES FROM E TO A
ENJOY, THIS IS ONE OF THE BEST SONGS IN THE WORLD!
Related for Harry Hood tab