Guitaretab - guitar tabs
Song name
# A B C D E F G H I J K L M N O P Q R S T U V W X Y Z
Home / P / Phish / Julius tab

Phish - Julius tab

-------------------------------------------------------------------------------
			     Julius - Phish
-------------------------------------------------------------------------------

Tabbed By : Pauly S
[ Tab from: http://www.guitaretab.com/p/phish/14585.html ]
part I:
                    p            D   C
------------------------------    2   0-|
------------------------------    3   1-|
------2----0------------------    2   0-|
---/2----0--------------------    0   2-|
--------------3--0------------        3-|
--------------------3--0------        0-|
part II:
         p            p
----------------------------|
--7---5--------7---5--------|
--7---5--------7---5--------|
--7---5--3-0---7---5--3-0---|
--5---3--------5---3--------|
----------------------------|
part III:  (always followed by part II)
         p            p
----------------------------|
--9---7--------9---7--------|
--9---7--------9---7--------|
--9---7--------9---7--------|
--7---5--------7---5--------|
---------3-0----------3-0---|

ARRANGEMENT:
part I:  6X  (4 as intro and 2 w/ singing)
D  C
part I:  4X
D  C
part I:  2X
part II:  4X
part I:  4X
E  D 2X --Like part II above, only 2 frets higher
part II (regular):  3X
part I:  ONCE
D  C
part I:  ONCE
D


| /  slide up
| \  slide down
| h  hammer-on
| p  pull-off
| ~  vibrato
| +  harmonic
| x  Mute note
===============================================================================
Related for Julius tab
Advertisement will be closed in 10 seconds