Song name
# A B C D E F G H I J K L M N O P Q R S T U V W X Y Z

Phish - Limb By Limb tab

the other tab is a bit off, especially in the beginning.
Also if you watch the IT festivle you can watch his fingerings on this
Here's the beginning part:  
                       C#     
e|--------------------------------------------------------------|
B|---------------------6--x--------6----------------------------|
G|---------------------6--x--------6----------------------------|
D|---------------------6--x--------6----------------------------|
A|------8--8--8--8-----8--x--6/8---8----------------------------|
E|--------------------------------------------------------------|
         (Fade in)     *              *
Starred pattern is played 2 frets up (D#) and then :

e|---------------------------------------------------------------|
B|--------10-----10-----10--10/11---11--11/10--10/6--------------|
G|--------10-----10-----10--10/10---10--10/10--10/6--------------|
D|--------10-----10-----10--10/12---12--12/10--10/6--------------|
A|--------12-----12----------------------------12/8--------------|
E|---------------------------------------------------------------|

Pattern then starts over.
When you get to the next pattern its jsut F and Bb, just like before.
Easy song, if anyone wants to tab the solo, that'd be cool, but no matter
            }<> }<> }<> }<> }<> NIC <>{ <>{ <>{ <>{ <>{
Tap to rate this tab
# A B C D E F G H I J K L M N O P Q R S T U V W X Y Z