Song name
# A B C D E F G H I J K L M N O P Q R S T U V W X Y Z

Phish - The Horse tab

  Am                     *-Begin repeat here
E|--------------------0----------------------0-------|
B|------------------0----------------------0---------|
G|----------------5----------------------5-----------|
D|--------------7----------------------7-------------|
A|0---0---0---0----------0---0---0---0---------0---0-|
E|---------------------------------------------------|
                                               ^   ^*
*=Play 3 open A notes on repeat

  Am       E       Fmaj7   Dmsus2
E|-----------------------0-0----|
B|-------0---0---0-0---1---3----|
G|-----5---1---------2-----2----|
D|---7---------2---3-------3----|
A|-7----------------------------|
E|------------------------------|

     F     Am      H-O             1.Bb          slower
E|-------------------------------0-|---------------------|
B|---1--3--5-6-5---5-6-5-3-1---1---|-3------3---3------3-|
G|---2--2--5-----7-5-7-5-4-2-------|-3-- --3---3-----3---|
D|---3--3--5-----------------2-----|-3----3---3----3-----|
A|---------------------------------|-1---1---1---1-------|
E|---------------------------------|---------------------|

The little Bb arpegio repeats a couple times then back to beginning... or...

2. Bb                  G    / \/\ Am \/\/\ (/\=strum)
|-------------------|-----3-------0-----------|
|--3-----3---3---0--|-----3-------1-----------|
|--3----3---3---3---|-----0-------2-----------|
|--3---3---3---3----|-----0-------2-----------|
|--1--1---1---0-----|-----2-------0-----------|
|-------------------|--3----------------------| then into verse...

Am                    C                             G
It's time I sling the baskets off this overburdened horse
D              C                                 F        F/E
Sink my toes into the ground and set a different course
D                         C
'Cause if I were here and you were there
                  Am
I'd meet you in between
B                Em            C                G
And not until my dying day, confess what I have seen
Tap to rate this tab
# A B C D E F G H I J K L M N O P Q R S T U V W X Y Z