Song name
# A B C D E F G H I J K L M N O P Q R S T U V W X Y Z

Phish - Secret Smile tab

Phish- Secret Smile Intro
This intro is originally on piano.


--7--------7---------7-------|
-----5--------5-----------5--|
-----------------------------|
--7--------7---------7-------|
-----------------------------|
-----------------------------|


--7----9---10--|
---------------|
---------------|
--7------------|
---------------|
---------------|
Tap to rate this tab
 
# A B C D E F G H I J K L M N O P Q R S T U V W X Y Z