Song name
# A B C D E F G H I J K L M N O P Q R S T U V W X Y Z

Phish - Horn tab

-------------------------------------------------------------------------------
			    Horn  - Phish
-------------------------------------------------------------------------------
Tabbed by: Roke_0

This other guy has everything else right. In early recordings of this song Trey actually
play during the lyrics, but the chords on the other tab sound good.

Tuning:  Standard

e|-----------12-----------------------------------------------------------------------|
B|-12-15-12-----15---12--------12-------------------------12--------------------------|
G|-----------------14---(12)14-----14-12---12-14-12-14-------12---(12)14-12-----------|
D|-------------------------------14------14---------------------14----------14------12|
A|----------------------------------------------------------------------------pb13¼---|
E|------------------------------------------------------------------------------------|

e|-------------------------------------------12------------------------------|
B|------------13--------------12---12-15-12----15---12------12---------------|
G|---------14---14---------14---------------------14--(12)14-----14-12-------|
D|---12-15-----------12-15------------------------------------14------14-----|
A|-13--------------13--------------------------------------------------------|
E|---------------------------------------------------------------------------|

e|-----------------------------------------------------------------------------|
B|--------------12-------------------------------------13-----------------12---|
G|-12-14-12-14----12---(12)14-12-------------------14----14-----------14-------|
D|-------------------14-----------14-12------12-15-------------12-15-----------|
A|----------------------------------------13----------------13-----------------|
E|-----------------------------------------------------------------------------|

e|----------8------------------------------------4--------------------------------|
B|-11-8-11-----11----8----8---------------4-7-4----7----4--------4----------------|
G|---------------10---10------(8)10-8----------------6------(4)6-----6-4----4-6---|
D|--------------------------10-------------------------------------6------6-------|
A|--------------------------------------------------------------------------------|
E|--------------------------------------------------------------------------------|

e|-----------------------------------------4-5-7-7-4---6-----------7-------9----------|
B|------4---------------------------5---5------------5---(7)/8/9-9---9/11---11/12-12--|
G|-4-6----4----(4)6-4------------6---6------------------------------------------------|
D|-----------6--------6-4---4-7-------------------------------------------------------|
A|-------------------------5----------------------------------------------------------|
E|------------------------------------------------------------------------------------|

e|---------------------------------------------------------------------------|
B|-14-15-14-15-17-18--15-18-15-(18)20-18---------15------------(13)15-13-----|
G|-------------------------------------------17-----(15)17-15------------15--|
D|---------------------------------------------------------------------------|
A|---------------------------------------------------------------------------|
E|---------------------------------------------------------------------------|

e|-----------------------------------------------------------------5--------------|
B|-8-8-10-8-11-10-----8-----------8----(8)9--8---------------5-8-5---8---5--------|
G|------------------10----(8)10-10---10------------10-9----7-----------7---(5)7---|
D|-----------------------------------------------10-------------------------------|
A|--------------------------------------------------------------------------------|
E|--------------------------------------------------------------------------------|

e|----------------------------------------------------------------------------------6-------|
B|-5----------------------7----------------------------------------------6----6-8------9-9~-|
G|-----7-5---5-7-5-7-8-5----5h7p5-7/8-7---5h7-7--7h8p7-10-8-5-7/8---8------8----------------|
D|---7-----7----------------------------8---------------------------------------------------|
A|------------------------------------------------------------------------------------------|
E|------------------------------------------------------------------------------------------|

e|---------------------------------------------------------------------------|
B|---------------------------------------------------------------------------|
G|-12+-10+-8+\---------------------------------------------------------------|
D|---------------------------------------------------------------------------|
A|---------------------------------------------------------------------------|
E|---------------------------------------------------------------------------|


|pb pre-bend
| /  slide up
| \  slide down
| h  hammer-on
| p  pull-off
| ~  vibrato
| +  artificial harmonic
| x  Mute note
| () Ghost/Guide note - You can basically put these in wherever you want using a quick
or slide.


===> The solo becomes distorted usually reaching full distortion at the 4-7-4 part. I
 begin with low tone and neck-pickup and switch to only the bridge pickup with higher
for the later parts. Trey also creates a lot of his trademark “sustain becoming 
wail” throughout. I used to be able to accomplish this on my old crappy amp by playing at
volume and rolling the tone knobs all the way forward. The ease with which he does this 
due in large part to excellent equipment and his $10,000 Languedoc hollow-body (oh and 
superior technique :). You’ll just have to experiment with your equipment.

The solo varies slightly from version to version and I know this is not even a 100%
transcription of the version I used, so any corrections or recommendations are most welcome.
Tap to rate this tab
# A B C D E F G H I J K L M N O P Q R S T U V W X Y Z