Song name
# A B C D E F G H I J K L M N O P Q R S T U V W X Y Z

Phish - First Tube tab

Tab by: Alex Friedman

e|-----------------------------------------------------------------------------|
B|-----------------------------------------------------------------------------|
G|---2-2-5-4-4-7-5-5-9-7-7-10-9-9-5-7-7-4-5-5-2--------------------------------|
D|-2----------------------------------------------2----------------------------|
A|-----------------------------------------------------------------------------|
E|-----------------------------------------------------------------------------|

e|-----------------------------------------------------------------------------|
B|-----------------------------------------------------------------------------|
G|---2-2-5-4-4-7-5-5-9-7-7-10-9-9-5-7-7-4-5-5-1--------------------------------|
D|-2----------------------------------------------1----------------------------|
A|-----------------------------------------------------------------------------|
E|-----------------------------------------------------------------------------|

repeat x2

e|-----------------------------------------------------------------------------|
B|-----------------------------------------------------------------------------|
G|-----------------------------------------------------------------------------|
D|---7-7-10-9-9-12-10-10-14-12-12-15-14-14-10-12-12-9-10-10-7------------------|
A|-7-------------------------------------------------------------7-------------|
E|-----------------------------------------------------------------------------|

e|-----------------------------------------------------------------------------|
B|-----------------------------------------------------------------------------|
G|-----------------------------------------------------------------------------|
D|---7-7-10-9-9-12-10-10-14-12-12-15-14-14-10-12-12-9-10-10-6------------------|
A|-7-------------------------------------------------------------6-------------|
E|-----------------------------------------------------------------------------|

repeat x4
Tap to rate this tab
# A B C D E F G H I J K L M N O P Q R S T U V W X Y Z