Song name
# A B C D E F G H I J K L M N O P Q R S T U V W X Y Z

Phish - First Tube tab

Help us improve GuitareTab! Take a short survey!
this looks closer to what trey does than the other tabs do

Riff 1
e------------------------------------------------------------
b------------------------------------------------------------
g---------------7-------9-7-7-10-9-9----7-7------------------
d----7-7-10-9-9---10-10--------------10-----9-10-10-9--------
a--7--------------------------------------------------7------
e------------------------------------------------------------

Riff 2 
e------------------------------------------------------------
b------------------------------------------------------------
g---------------7-------9-7-7-10-9-9----7-7------------------
d----7-7-10-9-9---10-10--------------10-----9-7--------------
a--7---------------------------------------------------------
e------------------------------------------------------------

Riff 3
e---------
b---------
g---------
d----7-7--
a--7------
e---------

Riff 1
Riff 2
Riff 1
Riff 2
Riff 3
Riff 1
Riff 2
Riff 1
Riff 2

thats just the beggining of it.. im not sure about the rest of the song


i used to play it like this:

e-----------------------------------------------------------
b--------------------5-----6-5-5---3-3----------------------
g--------5-4-4-7-5-5---7-7-------5-----4-5-5-2--------------
d--5-7-7---------------------------------------2------------
a-----------------------------------------------------------
e-----------------------------------------------------------

e-----------------------------------------------------------
b--------------------5-----6-5-5---3-3----------------------
g--------5-4-4-7-5-5---7-7-------5-----4-2------------------
d--5-7-7----------------------------------------------------
a-----------------------------------------------------------
e-----------------------------------------------------------

Both of these sound right when you are playing along with the cd.
this is the first song i learned on guitar so its easy and fun.
Related for First Tube tab