Phish - Cars Trucks Buses tab

Intro:

E| --------------------------------------|
B| --------------------------------------|
G| --------------------------------------|
D| --------------------------------------|
A| -5-2---3-5-3---5-5-2---3-5-3---5-5-2--|
E| --------------------------------------|      X 2


E| ---5-5-7-----7---5-7-5-------------------|
B| -7-------7-----7-----7-------------------|
G| -------------------7---------------------|
D| -----------------------------------------|
A| -----------------------------------------|
E| -----------------------------------------|
Tap to rate this tab
 
# A B C D E F G H I J K L M N O P Q R S T U V W X Y Z