Song name
# A B C D E F G H I J K L M N O P Q R S T U V W X Y Z

Phish - Wading In The Velvet Sea tab

Help us improve GuitareTab! Take a short survey!
Phish - Wading in the Velvet Sea (With Solo).
 Tabbed by Kenneth Nash - phishman831@hotmail.com.
  
TABBED by Kenneth Nash ( Phishman831@hotmail.com )
This Solo took me 3 hours to tab so if u have some bad
critcism about it u can eat my ass cause it is right
you just have to figure out the timing it doesnt sound 
right if your timing is wrong so practice!!! 
\"You Fucking Tool\" (Trey Anastasio)

PHISH-WADING IN THE VELEVET SEA (SOLO)

Chords G D Em C D G
Bridge Bm C hammer on 3 fret and pull off of b string with pinky



--19-----15-17-15-14----------15-14---------15-------------------------
15------------------15--------------17--17----17------------------19-15
----------------------14----16------------16------16------16-14--------
----------------------------------------------------17-14--------------
-----------------------------------------------------------------------
-----------------------------------------------------------------------


-----------------------------------------------------------------------------------------
17-15------------------------------------------------------------------------------------
-----16--------14-------------------------------17----------14ring---16ring-14ring-------
-------17-14-17--17-16---14-17-1414-ring 1414-17--17-14--14-------14---------------------
-------------------------------------------------------14--------------------------------
-----------------------------------------------------------------------------------------


--------------------------------------------------------------------------------------------------
---------------------------------------------------------------------------------------15-15-17-15
-----16--------------------17--------17--------19---------19---------------14-16-16-17------------
14-17--17-16-14-----1414-17--17-14-17--17-14-17--17-14-17---17-14-14-16-17------------------------
--------------------------------------------------------------------------------------------------
--------------------------------------------------------------------------------------------------


------15--------15------------------------------------------15-19--192019-17-14-------14-1514--------------------
151719--19171517--17-1515-17-20-17------------------------15-------------------15-1515-------17-15---------------
--------------------------------------------------14-h16------------------------------------------14-------------
-----------------------------------1717-17-14--17----------------------------------------------------17-----12---
---------------------------------------------17--------------------------------------------------------12/14--14-
-----------------------------------------------------------------------------------------------------------------


------15-----------------19-17-15-22-22hard-bend--22-now push string to pick ups to get that high pitched scream--
--15----15-------------15-----------------------------------------------------------------------------------------
12--12----12--14hold----------------------------------------------------------------------------------------------
------------14----------------------------------------------------------------------------------------------------
------------------------------------------------------------------------------------------------------------------
------------------------------------------------------------------------------------------------------------------


------------------------------------------------------------------------------------------------------------------
20---20-h22--2020-1919-1717---------------------------------------------------------------------------------------
---19----------------------17-------------------------------------------------------------------------------------
-------------------------------1414-14-16----12-14-16-12---1212-14-16-17-19--19-21-17-16-14-fade out--------------
------------------------------------------------------------------------------------------------------------------
------------------------------------------------------------------------------------------------------------------ 
:: Ultimate Guitar Archive :: 
http://www.ultimate-guitar.com 



Related for Wading In The Velvet Sea tab