Song name
# A B C D E F G H I J K L M N O P Q R S T U V W X Y Z

Phish - Run Like An Antelope tab

-------------------------------------------------------------------------------
	               RUN LIKE AN ANTELOPE - Phish
-------------------------------------------------------------------------------
Tabbed by: Erik
Email: erik.nmgn@gmail.com

Tuning: Standard (EADGBe)

NOTE I: Gratitude goes out to Jon Martin, on ultimate-guitar.com creator of ver. 2 of
this tab. I wanted to go into the Lawn Boy-version a bit deeper, and there are some
changes I made to the his tab but it's been a great help all in all and a fine scheme to 
just jam away with! I mainly expect one to learn the basic theme which is the first 
line of
'INTRO II', and jam with that. The rest are variations in case you heard a nice one on 
the album and want to learn that. Learning this full tab note-by-note would be wrong, 
just pick the good parts.
NOTE II: I strongly recommend using any software to slow this piece down and loop the
part you want to learn.
NOTE III: Parts of the solo were just over my head. I slowed it down and tabbed it out
as precisely as I could, but I am not able to play it at full speed so to check if it
still sounds right. I don't think it's fully correct, so if you feel like it, send me an 
email or leave a comment with a more correct transcription.

Then, ta-da, the song.

INTRO I (like, the first second – All palm muted and with a little overdrive)
e|----------------|
B|--------------7-|
G|----------7h9---|
D|--7-----7-------|
A|----7h9---------|
E|----------------|

INTRO II (the next 2 minutes - Palm mute everything that’s not a chord!)
  |0:01+    +    +    |    +    +    +
e|--------------------|-------------------|
B|10-10-----7-7-------|-----------------7-|
G|7--7------7-7----9--|--7---7-------7h9--|x2
D|7--7------7-7----7--|--7---7---7--7-----|
A|-------7/9x---------|9x-----7h9---------|
E|--------------------|-------------------|
  |0:10+    +    +    |    +    +    +    |    +    +    +    |    +    |
e|--------------------|-------------------|-------------------|---------|
B|10-10-----7-7-------|-------------------|---710---7---7-----|-7-------|
G|7--7------7-7----9--|--7---7---7------7-77h9-7----7---7-----|-7-------|
D|7--7------7-7----7--|--7---7---7---7h9--|----7----7---7-----|77-------|
A|-------7/9x---------|9x-------9--9------|-----------------9-|------9\-|
E|--------------------|-------------------|-------------------|---------|
  |0:18+    +    +    |    +    +    +    |    +    +    +    |
e|-----7--7------7----|-7----5h7-----7----|x-------------7--x-|
B|-----5--5------5----|-5----5h7-----7----|x-------------5--x-|
G|-----6--6------6----|-6----6h7-----7----|x-------------6--x-|
D|-----7--7------7----|-7----7x-----------|x-------------7--x-|
A|--------------------|-------------------|-------------------|
E|--------------------|-------------------|-------------------|
  |0:24+    +    +    |    +    +    +    |    +    +    +    |
e|-----x--x-x---------|---------7---7-----|5-----------5---5--|
B|-----x--x-x---------|---------5---5-----|5-----------7---7--|
G|-----x--x-x----7----|---------6---6-----|7---7-------7---7--|
D|-----x--x-x----7----|-------7-7---7--7--|7--7--------7---7--|
A|--------------9--9\-|-------------------|-------------------|
E|--------------------|-------------------|-------------------|
  |0:31+    +    +    |    +    +    +    |    +    +    +    |
e|--------------------|-------------------|-------------------|
B|x----x-------5---5--|----7--------------|-1010------7----7--|
G|x----x-------6---6--|----7------------7h9-7-7-------7----7--|
D|x----x-------7---7--|----7-----7h9-7h9--|-7-7-------7----7--|
A|--------------------|--9----------------|-------------------|
E|--------------------|-------------------|-------------------|
  |0:37+    +    +    |    +    |    +    +    +    |
e|--------------------|---------|-------------------|
B|----------7-7-------|---------|-1010----7--7-x-x--|
G|--7-------7--7---9--|----7----|-7-7-----7--7-x-x--|
D|--7--------------7--|-7h9-(9p7)-7-7-----7--7-x-x--|
A|--------------------|---------|-------------------|
E|--------------------|---------|-------------------|
  |0:43+    +    +    |    +    +    +    |    +    +    +    |
e|--------------------|-------------------|-------------------|
B|--7-----------------|10----------7------|--7---x----7----8--|
G|--7-------------7h9-|7-----------7------|--7---x----7----7--|
D|--7--------7-7h9----|7-----------7------|--7---x----7----7--|
A|--------7h9---------|---------9---------|-------------------|
E|--------------------|-------------------|-------------------|
  |0:49+    +    +    |    +    +    +    |    +    |
e|--------------------|-------------------|---------|
B|--9--10------x-x----|-7--7-------141414-|171716---|
G|--7--7-------x-x----|--7-7-------141414-|141414---|
D|--7--7-------x-x----|7--77-------141414-|141414---|
A|--------------------|----9-------161616-|---------|
E|--------------------|-------------------|---------|
  |0:54+    +    +    |    +    +    +    |    +    +    +    |
e|--------------------|-5-5--5-----5-5----|----5--10-----9----|
B|--------------------|-5-5--5-----5-5----|----7--7------7----|
G|-------7----x---xxx-|-6-6--6-----6-6----|----7--7------7----|
D|-------7----x---xxx-|-7-7--7-----7-7----|----7--7------7----|
A|--9-----------------|-------------------|-------------------|
E|--------------------|-------------------|-------------------|
  |1:01+    +    +    |    +    +    +    |    +    +    +    ...|
e|------10/1212-------|-------------------|----------------------|
B|------12/1414-------|----10-10-----7----|-----------10-10h12p10|
G|------12/1414--14---|----11-11-----7----|----------------------|
D|--------------------|----12-12-----7----|----------------------|
A|--------------------|-------------------|----------------------|
E|--------------------|-------------------|----------------------|
  |1:07+    +    +    |    +    +    +    ....|    +    +    +    |
e|12---x-12---x--10---|-----------------------|-------------------|
B|10---x-10---x--10---|--7----x---7-----------|-7-7-----7---------|
G|11---x-11---x--11---|--7----x---7--10p9p8p7-|-7-7--9--7----7h9--|
D|12---x-12---x--12---|--7----x---7----------9|-7-7--7--7----7----|
A|--------------------|-----------------------|-------------------|
E|--------------------|-----------------------|-------------------|
  |1:14+    +    +    |    +    +    +    |    +    |
e|--------------------|-------------------|---------|
B|-------7--10---7----|7----------7----x--|---------|
G|-7-----7--7----7h9--|7----------7----x--|-------7-|
D|-------7--7----7----|7----------7----x--|----7h9--|
A|--------------------|-------------------|---------|
E|--------------------|-------------------|---------|
  |1:19+    +    +    |    +    +    +    |    +    +    +    |    +    ...|
e|--------------------|-------------------|-----------7-------|------------|
B|10-1010---7----7----|----7-7----7----8--|-9----10----10-----|7-----101010|
G|7--7-7----7----7--9-|----7-7----7----7--|-7----7------------|7h9p7-7-7-7-|
D|7--7-7----7----7--7-|----7-7----7----7--|-7----7------------|7-----7-7-7-|
A|--------------------|--9----------------|-------------------|------------|
E|--------------------|-------------------|-------------------|------------|
  |1:27+    +    +    |    +    +    +    |    +    +    +    |     +   ...|
e|--------------------|-------------------|-------------------|------------|
B|9-------10---101010-|9-----10----x-x-x--|9----1010---7-7-7--|--7---101010|
G|7-------7----7-7-7--|7-----7-----x-x-x--|7------7----7-7-7--|--7---7-7-7-|
D|7-------7----7-7-7--|7-----7-----x-x-x--|7------7----7-7-7--|--7---7-7-7-|
A|--------------------|-------------------|-------------------|------------|
E|--------------------|-------------------|-------------------|------------|
  |1:35+    +    +    |    +    +    +    |    +    +    +    |
e|--------------------|-------------------|-------------------|
B|9-------10---10-----|11----------101010-|9-----10---7-------|
G|7-------7----7------|12----------7-7-7--|7-----7--7----9-9-7|
D|7-------7----7------|13----------7-7-7--|7-----7------------|
A|--------------------|-------------------|-------------------|
E|--------------------|-------------------|-------------------|
  |1:43+    +    +    |    +    +    +    |    +    +    +    |
e|--------------------|-------------------|-------------------|
B|--7---x-----10------|-7----x--x----x----|--7----------------|
G|--7---x-----7-10p9p7|-7----x--x----x----|--7-----7h9---x----|
D|--7---x-----7-------|-7----x--x----x----|--7-------7---x----|
A|--------------------|-------------------|-------------------|
E|--------------------|-------------------|-------------------|
  |1:49+    +    +    |    +    +    +    |    +    +    +    |
e|--------------------|-------------------|-------------------|
B|-7-----7-------1010-|7-7-8-9--10--------|--x---10---x----x--|
G|-7h9---7-------7-7--|7-7-7-7--7---------|--x---7----x----x--|
D|-7-----7-------7-7--|7-7-7-7--7---------|--x---7----x----x--|
A|--------------------|-------------------|-------------------|
E|--------------------|-------------------|-------------------|
  |1:56+    +    +    |    +    +    +    |    +    |
e|--------------------|--14--17-----------|---------|
B|1010-1010------1010-|--15--15--xx-------|15-------|
G|7-7--7-7-------7-7--|14--1414--xx-------|14--14\--|
D|7-7--7-7-------7-7--|16--16----xx-------|----16\--|
A|--------------------|-------------------|---------|
E|--------------------|-------------------|---------|
  |2:01+    +    +    |    +    +    +    |    +    +    +    |
e|-----5--------------|-------------------|----5-5----------5-|
B|-----5--------------|-2-x-x3-------3/7--|----5-5----------5-|
G|-7---6----7\2-------|-2-x-x2------------|----6-6----------6-|
D|-----7--------------|-2-x-x2------------|-7--7-7-------7--7-|
A|-----------------(3)|-4-x-x-------------|-------------------|
E|--------------------|-------------------|-------------------|
  |2:08+    +    +    |    +    +    +    |    +    +    +    |
e|--------------------|-------------------|-------5------5--5-|
B|7----x----12---1010-|5---1010------7----|-------7------7--7-|
G|7----x----10---7-7--|6---7-7-------7----|-------7------7--7-|
D|7----x-7--9----7-7--|7---7-7-------7----|-------7------7--7-|
A|--------------------|-----------9-------|-------------------|
E|--------------------|-------------------|-------------------|
  |2:14+    +    +    |    +    +    + ..
e|5---------8--5-7-7--|2--2--2----2--2--|
B|5---------5--5-5-5--|3--3--3----3-----|
G|6---------6--6-6-6--|2--2--2----2-----|
D|7------7--7--7-7-7--|0--0--0----0-----|
A|--------------------|-----------------|
E|--------------------|-----------------|

We have now reached the 2:18 point on the album!

INTRO III (First 'solo' I guess! Thick overdrive!)
  ...|    +    +    +    |    +    +    +    |    +    +    +    |
e|---|-------------------|-------------------|-------------------|
B|---|--------------x----|--------------x----|--------------x----|
G|---|--------------x----|--------------x----|--------------x-x--|
D|---|--------------x----|--------------x----|----------------x--|
A|--7|5--------------0h3p03---------------0h7|5------------------|
E|-5-|-------------------|-------------------|-------------------|
  |2:25+    +    +    |    +    +    +    |    +    +    +    |
e|--------------------|-------------------|-------------------|
B|----710787--7-------|-------------------|-------------------|
G|-7h9---------9b11---|--------------11r9p7-------------------|
D|7-------------------|-------------------|-9-7-7-7-7-7-77-7-7|
A|--------------------|-------------------|-------------------|
E|--------------------|-------------------|-------------------|
  |2:31+    +    +    |    +    ...+    +    |    +    +    +    |
e|--------------------|----------------------|-------------------|
B|--------------------|----------------------|----10b12----------|
G|--------------------|--7-9b11r9p7----------|-------------------|
D|7-------------------|--7---------9-7-7-7-77|7777--------777777-|
A|--9-----------------|-9--------------------|-------------------|
E|--------------------|----------------------|-------------------|
  |2:37+    ...+    +    |    +    +    +    |    +     +    ..+    |
e|-----------------------|-------------------|----------------------|
B|-----------------------|-----------7--10b12|---^1210--------------|
G|-----9b11r9p7----------|-79-9h7--7---------|--------119h10p9\7-7--|
D|777----------9-7----78-|9------9-----------|----------------------|
A|------------------9----|-------------------|----------------------|
E|-----------------------|-------------------|----------------------|
  |2:43+    +    +    |    +    +    +    |    +    +    +  ..
e|-------12-----------|---------17---17-17|-------------------|
B|-------15^17-----15-|---------15--15---15-------------------|
G|-----------------14-|1417-----14-14-----14--------\8b9------|
D|12------------------|----14---1616------|-------------------|
A|--------------------|-------------------|-------------------|
E|--------------------|-------------------|-------------------|
  ..     |                        |
e|---15--|14--12--10-7-6-5---3h2-2|
B|-15--14|--12--10--8-7-6--3------|
G|-------|------------------------|
D|-------|------------------------|
A|-------|------------------------|
E|-------|------------------------|

THE JAM
  |let ring 3 measures|    +    +    +    |3:00...+   +   +   |
e|0-------------------|-------------------|----------------------------------| +7 means
B|0-------------------|-------------------|----------------------------------| a harmonic
G|0-------------------|-------------/9\---|-------------------| on that 7th--|
D|2-------------------|-------------/9\---|7b9r7p5---------------------------| fret. Let it
A|2-------------------|-------------/9\---|-------7-------+7-----------------| ring for two
E|0-------------------|-------------------|----------------------------------| measures, then
  |    +    +    +    |3:08+    +    +    |    +    +    +    |
e|--------------------|-------------------|-------------------|
B|--------------------|-------------------|-------------------|
G|--------------------|-------------------|-------------------|
D|---------------9/14-|-------------------|--9----------------|
A|--------------------|14\7-77-77---77---7|7------------------|
E|--------------------|-------------------|-------------------|
  |3:12+    +    +    |    +    +    +    |    +    +    +    |
e|--------------------|-------------------|-------------------|
B|--------------------|-------------------|-------------------|
G|--------------------|-------------------|-------------------|
D|--------------------|-------------------|-------------------|
A|7-7-7-7-7-7-7-7-7-7-|7-9----------/12\--|7-7-7-7-7-7-7-7-7-7|
E|--------------------|-------------------|-------------------|
  |3:18+    +    +    |    +    +    +    |    +    +    +     |
e|--------------------|-------------------|--------------------|
B|--------------------|-------------------|--------------------|
G|--------------------|-------------------|-----------9^11^9^11|
D|9-------------/14\--|-------------------|--------------------|
A|--------------------|7\6-7-7-7-7-7-7-7-7|7-9-----------------|
E|--------------------|-------------------|--------------------|
  |3:24+    +    +    |    +    +    +    |    ..+   +   +    |
e|--------------------|-------------------|-------------------|
B|--------------------|-------------------|-------------------|
G|^12-----r9-777999999|99997777-----------------------------/4|
D|--------------------|---------9999777777|7------------------|
A|--------------------|-------------------|-9^10-7------/14\--|
E|--------------------|-------------------|-------------------|
  |3:31...+    ...+    +   |    +    +    +    |    +    +    +    |
e|-------------------------|-------------------|-------------------|
B|-------------------------|-------------------|-------------------|
G|2-0-2-0-4-0--------------|-----------12-12^13|-------------------|
D|------------2-1-0---0----|-----------14-14---|-------------------|
A|-----------------1-2-2-1-|-----------14-14---|14-14-14-14-14-14--|
E|------------------------3|0------------------|-------------------|
  |3:37+    +    +    |    +    +    +    |    +    +    +    .|
e|--------------------|-------------------|--------------------|
B|--------------------|14-12--15----------|--------------------|
G|--12^13-------------|14-12------12--1212|---------12^14-14^16|
D|--14----------------|--------------14---|14141414------------|
A|14-----14-14-14-1414|-------------------|--------------------|
E|--------------------|-------------------|--------------------|
  |3:43+    +    +    ....|    +    +    +    |    +    .+    +   . |
e|------------------------|-------------------|---------------------|
B|------------------------|-------------------|---------15^17-121514|
G|-----------^16^16r14p12-|----14^16----------|14^16----------12----|
D|----------------------14|1212-----1212121212|-----1212------14----|
A|------------------------|-------------------|---------------------|
E|------------------------|-------------------|---------------------|
  |3:49+    +    +    |    +    +    +    |    +    +    +    |
e|--------------------|-------------------|-------------------|
B|1312----------------|-------------------|-------------------|
G|----141312^13-------|-------------------|-------------------|
D|-------------14-12--|-------------------|-------------------|
A|--------------------|161215-14--12---10-|-9--8----7-3h6p3h5-|
E|--------------------|-------------------|-------------------|
  |3:55+    +    +    |    +    +    +    |    +    +    +    |
e|--------------------|-------------------|-------------------------------------| At the * gently
B|-----------------2--|^3^2^3^2-^3^2-^3^2*|^3^2^3^2-^3^2-^3^2-| touch the 14th--|
G|--------------------|-------------------|-------------------------------------| fret with your
D|--------------------|-------------------|-------------------------------------| pick to delete
A|-----9\------9\-----|-------------------|-------------------------------------| the base-note
E|--------------------|-------------------|-------------------------------------| and octave it.
  |4:01+    +    +    |    +    +    +    |    +    +    +    |
e|--------------------|-------------------|-------------------|
B|^3^2-^3^2-^3^2-^3^2-|2^3--r2p0-2p0------|-------------------|
G|--------------------|-------------3^4^3^4^3^4^3^4^3------6--|
D|--------------------|-------------------|-------------------|
A|--------------------|-------------------|-------------------|
E|--------------------|-------------------|-------------------|
  |4:06+    +    +    |    +    +    +    |    +    +    +   ...........|
e|--------------------|-------------------|-----------------------------|
B|--------------------|-------------------|-----------------------------|
G|6b7----------------8b9--------------9h11b12^11^12-11b12r11p10p9-11p9--|
D|--------------------|-------------------|-----------------------------|
A|--------------------|-------------------|----------------------------9|
E|--------------------|-------------------|-----------------------------|
  |4:14+    +    +    |    +    +    +    |    +    +    +    |
e|--------------------|-------------------|---------------------|
B|--------------------|-------------------|---------------------|
G|------------------11b12^11^12^11-12^11p9|-----------------11--|b
D|--------------------|-------------------|---------------------|
A|-----10---11-12-----|-------------------|9---10---11--12------|
E|--------------------|-------------------|---------------------|
  |4:21+    +    +    |    +    +    +    |    +    +    +    |
e|--------------------|-------------------|-------------------|
B|--------------------|-------------------|-------------------|
G|12^11^12^11-------9-|-------------------|-------------------|
D|--------------------|-------------------|-------------------|
A|--------------------9----10---11--12-9--|--10--11--12--9----|
E|--------------------|-------------------|-------------------|
  |4:27+    +    +    |    +    +    +    |    +    +    +    |
e|--------------------|-------------------|-------------------| The 12---|s are
B|--------------------|-------------------|------------------------------| palm-muted
G|--------------------|-------------------|--------------9b11------------| and more than
D|----------9-10-11-12|11h12-12-1212131212|12121212121212----12----------| I tabbed out
A|10-11-12------------|-------------------|------------------------------| here.
E|--------------------|-------------------|------------------------------|
  |4:33+    +    +    |    +    +    +    |    +    +    +    |
e|--------------------|-------------------|-------------------| Same with the
B|-----10b12--------12|------11-8---------|-------------------| 9s
G|----------------9---|-------------------|--11b12---11b13----|
D|1212------121212----|--9999--9-9-9999---|9------999-----9999|
A|--------------------|-------------------|-------------------|
E|--------------------|-------------------|-------------------|
  |4:39+    +    +   . |    +    +    +    |    +    +    +    ....|
e|---------------------|-------------------|-----------------------|
B|---------------------|-------------------|-----------------91011-|
G|11b13---11b13-------9|----------9--------|--------------911------|
D|-----999-----9991112-|9-9-11-12----------|91012/14-91012---------|
A|---------------------|-----------------11|-----------------------|
E|---------------------|-------------------|-----------------------|
  |4:45+    +    +    |    +    +    +    |    +    +    +    ....|
e|--------------13----|-------14------^---|-----------------------|
B|----------11--------|----11-------------|-------1011----------10|
G|--------------------|-----------------11|1111-12----11-9-11/12--|
D|--------------------|-------------------|-----------------------|
A|--------------------|-------------------|-----------------------|
E|--------------------|-------------------|-----------------------|
  |4:51+    +    +    |    +    +    +    |    +    +    +    |
e|--------------------|-------------------|-------------------|
B|11------13----15----|----13b----13b-----|------12b-------13b|
G|--111111--1111--1111|1111---------------|-------------------|
D|--------------------|-------1111--------|111213----121314---|
A|--------------------|-------------------|-------------------|
E|--------------------|-------------------|-------------------|
  |4:57                  ........|                   .............|
e|-------------------------------|--------------------------15-17-|
B|-------------------------------|--------151617151718151718------|
G|------12b13-12131415-1516151617|15161718------------------------|
D|121314-----14------------------|--------------------------------|
A|-------------------------------|--------------------------------|
E|-------------------------------|--------------------------------|
  |5:01+    +    +    |    +    +    +    |    +    +    +    ..|
e|--(16b)17---17--17--|17-17(r16)p15------|---------------------|
B|--------------------|-------------171717|14b15--15----15----14|
G|17------------------|-------------------|-----12--14----14----|
D|--------------------|-------------------|-----------12----12--|
A|--------------------|-------------------|---------------------|
E|--------------------|-------------------|---------------------|
  |5:07+    +    +    ......|    +    +    +    |    +    +    +    ...|
e|--------------------------|-------------------|----------------------|
B|--------------------------|--14---12-11-------|14--12--11------------|
G|--------------------12--12|-14----------------|------------12--11----|
D|12--------1213141516--15--|14--14---14--------|--14--14--14--14----14|
A|12--121314----------------|-------------------|------------------14--|
E|10------------------------|-------------------|----------------------|
  |5:14               .............|    +    +    +    ...|
e|---------------------------------|----------------------|
B|---------------------------------|----------------------|
G|---------------11-------1112-11--|1211------------------|
D|------1214-1214--14-1214-------14|----14-141211109-9p7--|
A|111214---------------------------|--------------------10|
E|---------------------------------|----------------------|
  |5:16+    +    +    |    +    +    +    |    +    +    +    |
e|--------------------|-------------------|-------------------------------------| At the * gently
B|--------------------|-------------------|-------------------| touch the 21th--|
G|--------------------|-------------------|2------------------------------------| fret with your
D|-----4-----------4b5r4------012-023-0245|-------------------------------------| pick to delete
A|77777----77777777---|--2-234------------|-------------------------------------| the base-note
E|--------------------|-------------------|-------------------------------------| and add hrmnic.
  |5:23+    +    +    |    +    +    +    |    +    +    +    |
e|--------------------|-------------------|-------------------|
B|----------------0/12|15b17-------\5/17--|---------\7/17b18--|
G|--------------------|-------------------|-------------------|
D|--------------------|-------------------|-------------------|
A|--------------------|-------------------|-------------------|
E|--------------------|-------------------|-------------------|
  |5:29+    +    +    |    +    +    +    |    +    +    +    |
e|--------------------|-------------------|-------------------|
B|r17-----20b21-^^^^--|-21b22--^^^^-------|---^^^^^^^^--------|
G|--18----------------|-------------------|-------------------|
D|--------------------|-------------------|-------------------|
A|--------------------|-------------------|-------------------|
E|--------------------|-------------------|-------------------|
  |5:35+    +    +    |    +    +    +    |    +    +    +    |
e|--------------------|-------------------|-------------------|
B|-^^^^^^^^^^^^^^^^^^-|-^^^^^^^^^^^^^^^^^-|-^^^^^^^^^^^-1717--|
G|--------------------|-------------------|-----------------14|
D|--------------------|-------------------|-------------------|
A|--------------------|-------------------|-------------------|
E|--------------------|-------------------|-------------------|
  |5:41+    +    +    ..|    +    +    +    ...|    +    +    +    .|
e|16b17-1515141312------|----------------------|17\12-1212-12p10----|
B|----------------141312|----------------------|----------------1212|
G|----------------------|141312----------------|--------------------|
D|----------------------|------141312----------|--------------------|
A|----------------------|------------141312----|--------------------|
E|----------------------|------------------1412|--------------------|
  |5:46     +    +    |    +    +    +    |    +    +    +    |
e|--------------------|-------------------|-------------------|
B|121098--------------|-------------------|-------------------|
G|------987-----------|9---9----9----7----|9---9----9----9----|
D|---------987-----789|-789--789--789--789|-789--789--789--789|
A|------------10710---|-------------------|-------------------|
E|--------------------|-------------------|-------------------|
  |5:52+    +    +    |    +    +    +    |    +    +    +    |
e|--------------------|-------------------|-------------------|
B|--------------7-----|-------------7-78--|8---7----6----5--/8|
G|9---7----9-789-9----|9-9-7-----679-9----|-------------------|
D|-789--789-9---------|-9-9-----9---------|-------------------|
A|--------------------|-------------------|-------------------|
E|--------------------|-------------------|-------------------|
  |5:58+    +    +    |    +    +    +    .....|
e|--------------------|------------------------|
B|7----6--5------456--|56-56-6-89-678910-891011|
G|----------4567------|--7---------------------|
D|--------------------|------------------------|
A|--------------------|------------------------|
E|--------------------|------------------------|
  |6:02+    +    +    ...............|    +    +    +    ..|
e|-----------------------------------|---------------------|
B|12-91011121314-1011121415-12141516-|17-----17--1717--15--|
G|-----------------------------------|---------------------|
D|-----------------------------------|----14---14----12--12|
A|-----------------------------------|---------------------|
E|-----------------------------------|---------------------|
  |6:06+    +    +    |    +    +    +    |    +    +    +    |
e|--------------------|-------------------|-12/14-14--14--15--|
B|15------1715--16--17|-------------------|-------------------|
G|--------------------|-------------------|-------------------|
D|1212/1414-1212131314|1414141212/14141414|14/16-16--16--17-16|
A|--------------------|-------------------|-------------------|
E|--------------------|-------------------|-------------------|
  |6:12.....+    +    +    |    +    +    +    ...|
e|-----15--14---15---17--15|-17---15----17--19--17|
B|-------------------------|----------------------|
G|-------------------------|----------------------|
D|16/17-\16--/17--/19--\17-|1919\17-17/19-/21-\19/|
A|-------------------------|----------------------|
E|-------------------------|----------------------|
  |6:15+    +    +    |    +    +    +    .|    +    +    +    |
e|19-----18-17-16-1514|--------------------|-------------------|
B|--------------------|--------------------|-------------------|
G|--------------------|--------------------|-------------------|
D|2121\20-\19\18\17\16|17-18-19\7b9-7^9^7^9|7b9-------b10-10b11|
A|--------------------|--------------------|-------------------|
E|--------------------|--------------------|-------------------|
  |6:22+    +    +    |    +    +    +    |    +    +    +    |
e|--------------------|-------------------|-------------------|
B|--------------------|-------------------|-------------------|
G|--------------------|-------------------|-------------------|
D|b11-------b12-------|12-b13-b14-b15-----|15b16-16b17--------|
A|--------------------|-------------------|-------------------|
E|--------------------|-------------------|-------------------|
  |6:27+    +    +    |    +    +    +    |    +    +    +    |
e|--------------------|-------------------|-------------------|
B|--------------------|-------------------|-------------------|
G|--------------------|15h16h17b18-b19----|17h18h19b20--b21---|
D|17b18-------18b19\--|-------------------|-------------------|
A|--------------------|-------------------|-------------------|
E|--------------------|-------------------|-------------------|
  |6:34+    +    +    ....|    +    +    +    |
e|----------------14141414|141414114/19---\14-|
B|------------------------|-------------------|
G|21^22^21^23etc\/--------|-------------------|
D|------------------------|-------------------|
A|------------------------|-------------------|
E|------------------------|-------------------|
  |6:37+    +    +    .............|    +    +    +    |
e|15-------------------------------|-------------------|
B|--171615-----15------------------|-------------------|
G|--------15h16-16p1514-------15b16|ring..--------16\--|
D|---------------------171417------|-------------------|
A|---------------------------------|-------------------|
E|---------------------------------|-------------------|
  |6:41+    +    +    |    +    +    +    |    +    +    +    |
e|--------------------|-------------------|-------------------|
B|--------------------|-------------------|-------------------|
G|--------------------|-------------------|-------------------|
D|--------------------|--16-15b16r15-14b15|r14-12b13r12-9b10r9|
A|7(b9)---------------|-------------------|-------------------|
E|------5h7-7p6p5-3---|3/-----------------|-------------------|
  |6:49+    +    +    |    +    +    +    .................|
e|--------------------|---------------15p12--15p12--15p12--|
B|--------------------|-----(7-11/12)------12-----12-----12|
G|--------------------|-----(7-11---)----------------------|
D|8b9-------7b8r7-2---|2b3r2-------------------------------|
A|--------------------|------------------------------------|
E|--------------------|------------------------------------|
  |    +    +    +    |    +    +    +    |    +    +    +    |
e|15p12--etc.--14p12--|1414-1514-1514-1715|141414151414141514-|
B|-----12etc.-------12|(continue the patt-|-------------------|
G|--------------------|ern of last bar,---|---''-------''-----|
D|--------------------|denoted are the----|-------------------|
A|--------------------|changing highest---|-------------------|
E|--------------------|notes to flick-off)|-------------------|
  |          +          +             +             |
e|----14p12------17p15------14p12-----12-14p12-17p15| Well that's what
B|1212-----121212-----121212-----12h15--------------| it sounds like
G|--------------------------------------------------| at half-speed :P
D|--------------------------------------------------| Damn Trey.
A|--------------------------------------------------|
E|--------------------------------------------------|
  |    +    +    +    |    +    +    +    |    +    +    +    |
e|19p15--etc.----17''-|1719171917191719---|171917191719-------|
B|-----17etc.------''-|--''-------''------|-''----''----19/9--|
G|--------------------|(repeat pattern)---|(rpt. until-)------|
D|--------------------|-------------------|-------------------|
A|--------------------|-------------------|-------------------|
E|--------------------|-------------------|-------------------|
  |    +    +    +    ........|
e|17b18r17------17b18r17------|
B|--------171615--------171615|
G|----------------------------|
D|----------------------------|
A|----------------------------|
E|----------------------------|
  |                                              |
e|17b1817p16p15-----17b1817p16p15----------------|
B|-------------17p15-------------17p16p15-12-----|
G|------------------------------------------12/16|
D|-----------------------------------------------|
A|-----------------------------------------------|
E|-----------------------------------------------|
  |7:06                              |
e|-----------------------------------|
B|-----------1516---151618---15161718|
G|15161718-18-----18-------16--------|
D|-----------------------------------|
A|-----------------------------------|
E|-----------------------------------|
  |                                   |    +    +    +    |
e|1415-141516-13141516-18171820211718-|18^^--19^^--\/20^^-|
B|------------------------------------|-------------------|
G|------------------------------------|-------------------|
D|------------------------------------|-------------------|
A|------------------------------------|-------------------|
E|------------------------------------|-------------------|
  |7:14+    +    +    |    +    +    +    |    +    +    +    |
e|19b21-20b22-21b23---|b23^^^^^^^^^^^^^^--|b23^^^^^^^^^^^^----|
B|--------------------|-------------------|-------------------|
G|--------------------|-------------------|-------------------|
D|--------------------|-------------------|-------------------|
A|--------------------|-------------------|-------------------|
E|--------------------|-------------------|-------------------|
  |    +    +    +    |
e|b23^^^^^^^^---------|
B|---------------x\-\-|
G|---------------x\-\-|
D|---------------x\-\-|
A|---------------x\-\-|
E|---------------x\-\-|

That was the solo! Thanks for bearing with me till this.

CCOL JAM
Starts with no less than 2 measures of rest for your hands! Then comes another part with
a lot of palm muting and normal muting. Nothing special here.
  |7:25+    +    +    |    +    +    +    |    +    +    +    |
e|-----7--------------|-----------x-------|10\--------x-x-x-x-|
B|-----8---------8----|----10-----x--x----|-----------x-x-x-x-|
G|-----9---------9----|----11--------x----|-----------x-x-x-x-|
D|---------------9----|----12--------x----|-------------------|
A|-----palm mute------|-------------------|---mute a barred---|
E|--------------------|-------------------|---e-minor-chord---|
  |7:31+    +    +    |    +    +    +    |    +    +    +    |
e|-----x-x-x--9-9/10--|x---x-------x-x----|x-x-x-x-x-x-x-x----|
B|-----x-x-x-7--7-----|x---x-------x-x----|x-x-x-x-x-x-x-x----|
G|-----x-x-x-77-7-----|x---x-------x-x----|x-x-x-x-x-x-x-x----|
D|--------------------|-------------------|-------------------|
A|--------------------|---mute a barred---|---mute a barred---|
E|--------------------|---e-minor-chord---|---d-major-chord---|
  |7:37+    +    +    |    +    +    +    |    +    +    +    |
e|---7----------------|-------------------|----x------15\-----|
B|---8----------------|-------------------|----x--------------|
G|---9----------------|-------------------|----x--------------|
D|---9-(7b)8r7p5------|-------------------|-------------------|
A|--------------7-----|7-7777-77--7--777--|-------------------|
E|--------------------|-------------------|-------------------|
  |7:42+    +    +    |
e|--x------------24---| On my tele I can do a 24-| by pushing the
B|--x----x---------------------------------------| string between the fingerboard and the
G|-------x---------------------------------------| pickup. No idea if that goes for Trey
D|-------x---------------------------------------| as well or whether this works on any
A|-----------------------------------------------| other guitar. Harmonic on 5th fret
E|--------------------| should work too----------|
  |7:45+    +    +    |    +    +    +    |    +    +    +    |
e|-------15b16--------|-------------------|--------------7-7--|
B|-----------------x--|---------1212-11---|----x---------8-8--|
G|-x----------x-------|---------1212-12---|----x---------9-9--|
D|-x----------x-------|11-------1111---11-|----x---------9-9--|
A|-x----------x-------|-------------------|-------------------|
E|--------------------|-------------------|-------------------|
  |7:50+    +    +    |    +    +    +    |    +    +    +    |
e|-x-------------5-5--|--x---10-10--------|-------------------|
B|-x--------x-x--7-7--|--x---12-12--------|--x-7----7--x-x-x-x|
G|-x--------x-x--7-7--|--x---11-11--------|--x-7----7--x-x-x-x|
D|-x--------x-x--7-7--|--x---12-12--------|--x-7-------x-x-x-x|
A|---x----------------|-----------------7-|5------------------|
E|-----7\-------------|-------------------|-------------------|
  |7:56+    +    +    |    +    +    +    |    +    +    +    |
e|-----7---------10\--|----7---------10\--|----7----9-9--9-9--|
B|-----8--------------|----7--------------|----8----8-8--8-8--|
G|-----9--------------|----7--------------|----9----9-9--9-9--|
D|--------------------|----7--------------|-------------------|
A|7--7----------------|-------------------|-------------------|
E|--------------------|-------------------|-------------------|
  |8:01+    +    +    |    +    +    +    |    +    +    +    |
e|-------x--x--7------|---------12--12----|x-x-x--------------|
B|-------x--x--8------|---------12--12----|x-x-x-7------------|
G|-------x--x--9------|12-12----12--12----|x-x-x-7------------|
D|-------x--x--9------|14-14------14------|x-x-x-7------------|
A|--------------------|-------------------|-------------------|
E|--------------------|-------------------|-------------------|

Here come the vocals! The guitar however continues the strumming routine.
  |8:07+    +    +    |    +    +    +    |    +    +    +    |
e|--------------------|----10-------------|-----------14-1414\|
B|x----x-------x-x----|x---x-------x-x----|------12------1212-|
G|x----x-------x-x----|x---x-------x-x----|--x---12------1212-|
D|x----x-------x-x----|x-----------x-x----|--x----------------|
A|--------------------|-------------------|--x----------------|
E|--------------------|-------------------|(mute e-chord)-----|
  |8:13     +    +    |    +    +    +    |    +    +    +    |
e|---------------12---|-------------------|----10--------x-x--|
B|x--x--------x--12---|----x------x--x--x-|--x-x---------x-x--|
G|x----x------x--12---|----x------x--x--x-|--x-x---------x-x--|
D|x----x------x-------|----x------x--x--x-|--x----------------|
A|--------------------|-------------------|-------------------|
E|--------------------|-(mute e-chord)----|-------------------|
  |8:18+    +    +    |    +    +    +    |    +    +    +    |
e|-----7------7--7-7--|-----10-10----x----|---------14---14---|
B|-----8------8--8-8--|--10------x---10---|x-x-12---12-12-----|
G|-----9------9--9-9--|--11------x---11---|x-x-12-------------|
D|-----9------9--9-9--|--12------x---12---|x-x----------------|
A|--------------------|-------------------|-------------------|
E|--------------------|-------------------|-------------------|
  |8:24+    +    +    |    +    +    +    |    +    +    +    |
e|--------------------|x-x-x--x--x---7-7--|-------------------|
B|-----15-15-12--14---|x-x-x--x--x---8-8--|----8---------8----|
G|-----x--x--x---x----|x-x-x--x--x-9-9-9--|----9---------9----|
D|--------------------|x-x-x--x--x-9-9-9--|----10--------10---|
A|--------------------|-------------------|-------------------|
E|--------------------|-------------------|-------------------|

RUNRUNRUNRUNRUNRUNRUNRUNRUNRUN
  |8:29     +    +    |    +    +    +    |    +    +    +    |
e|--------------------|-------------------|-----------10------|
B|---------------10---|----13---x-x-13b---|----10--------10---|
G|---------------11---|----12---x-x-x-----|----11--------11---|
D|---------------12---|----14---x-x-x-----|----12--------12---|
A|--------------------|-------------------|-------------------|
E|--------------------|-------------------|-------------------|
  |8:35+    +    +    |    +    +    +    |    +    +    +    |
e|--------------------|---------10--------|-------------------|
B|-----13----12--10---|---------10--------|----13----13--13b--|
G|-----11----12--10b--|---11----11---11---|----12----12--12---|
D|-----12----12--10---|---12---------12---|----14----14--14---|
A|-----------10--8----|---12---------12---|-------------------|
E|--------------------|-------------------|-------------------|
  |8:41+    +    +    |    +    +    +    |    +    +    +    |
e|--------------------|-------------------|----10-------------|
B|-----10----x---10---|----13-----12-10---|----10-----10-10---|
G|-----11----x---11---|----12-----12-10b--|----11-----11-11---|
D|-----12----x---12---|----14-----12-10---|----12-----12-12---|
A|--------------------|-----------10-8----|-------------------|
E|--------------------|-------------------|-------------------|
  |8:47+    +    +    |    +    +    +    |    +    +    +    |
e|--------------------|---------10--------|-------------------|
B|-----13-------------|---------10---10---|----13-----12-10---|
G|-----12-------------|----11--------11---|----12-----12-10b--|
D|-----14-------------|----12--------12---|----14-----12-10---|
A|--------------------|-------------------|-----------10-8----|
E|--------------------|-------------------|-------------------|

Set the gearshift for the high gear of your soul
  |8:53+    +    +    |    +    +    +    |    +    +    +    |
e|----------10--------|-------------------|---------x---------|
B|-----10--------10---|----13-------------|----10---x----10---|
G|-----11--------11---|----12-------------|----11---x----11---|
D|-----12--------12---|----14-------------|----12---x----12---|
A|--------------------|-------------------|-------------------|
E|--------------------|-------------------|-------------------|
                      You got to run like an antelope out of control
  |8:58+    +    +    |    +    +    +    |    +    +    +    |
e|--------------------|--------------14---|-------------------|
B|-----x------12-10---|----15-15-----15---|-13-13b---13--13b--|
G|-----x------12-10---|----14-14-----14---|-12-12----12--12---|
D|-----x------12-10---|----16-16----------|-14-14----14--14---|
A|------------10-8----|----17-17----------|-------------------|
E|--------------------|-------------------|-------------------|
                                 You've got to run like an antelope
  |9:04+    +    +    |    +    +    +    |    +    +    +    |
e|-----14--------14---|-------------------|-------------------|
B|-----15-----xx-15---|----13-----12-10---|--10--------10-----|
G|-----14-----xx-14---|----12-----12-10---|--11--------11-----|
D|------------xx------|----14-----12-10---|--12--------12-----|
A|--------------------|-----------10-8----|--12--------12-----|
E|--------------------|-------------------|10----10-10--------|
   Out of control
  |9:10+    +    +    |    +    +    +    |    +    +    +    |
e|--------------------|----10---10--------|-------------------|
B|-----13----13--13b--|-----------10-10---|-----13----12-10---|
G|-----12----12--12---|------12---12-11---|-----12----12-10b--|
D|1414-14-x-x14--14---|1212-------12-12---|-----14----12-10---|
A|--------------------|-------------------|-----------10-8----|
E|--------------------|-------------------|11/12--------------|
  Run like an antelope out of control
  |9:16+    +    +    |    +    +    +    |    +    +    +    |
e|--------------------|-------------------|-------------------|
B|--10---10---10---10-|--13---13---13---13|--10-------------10|
G|--11---11---11---11-|--12---12---12---12|--11---11---11---11|
D|--12---12---12---12-|--14---14---14-1414|--12---12---12---12|
A|--------------------|-------------------|-------12---12-12--|
E|--------------------|-------------------|------------10-----|
                       Run like an antelope out of control
  |9:21+    +    +    |    +    +    +    |    +    +    +    |
e|--------------------|-------------------|-------------------|
B|--13b-r-----12-10---|--10---10---10---10|--13-1313---13-13b-|
G|--12--------12-10---|--11---11---11---11|--12-1212---12-12--|
D|--14--------12-10---|--12---12---12---12|--14-1414---14-14--|
A|------------10-8----|-------------------|-------------------|
E|--------------------|-------------------|-------------------|
                                           Run like an antelope
  |9:27+    +    +    |    +    +    +    |    +    +    +    |
e|-------10-----------|-------------------|-------------------|
B|10-1010-----10-10---|-1313------12-10---|--10---10---10---10|
G|11---11-----11-11---|-12--------12-10---|--11---11---11---11|
D|12---12-----12-12---|-----------12-10---|--12---12---12---12|
A|--------------------|-----------10-8----|-------------------|
E|--------------------|-------------------|-------------------|
  Out of control
  |9:33+    +    +    |
e|--------------------|
B|--13---13-----13--13|
G|--12---12-----12--12|
D|1414-1414-141414--14|
A|--------------------|
E|--------------------|

OUTRO
  |    8 times the D  ...|4 times Am7 2xG 2xF  |                   |
e|-----------------------|---------------------|------------10-----|
B|10-10-10-10-10-10-10-10|13-13-13-12-12-10-10-|------------10-----|
G|11-11-11-11-11-11-11-11|12-12-12-12-12-10-10-|------------11-----|
D|12-12-12-12-12-12-12-12|14-14-14-12-12-10-10-|14b16......-12-----|
A|-----------------------|---------------------|------------12\7---|
E|-----------------------|---------------------|------------10-----|


************************************

| /   slide up
| \   slide down| h   hammer-on
| p   pull-off
| ~   vibrato
| +   harmonic
| x   Mute note
| b   Bend
| pb  Pre-bend
| br  Bend release
| pbr Pre-bend release
| brb Bend release bend

************************************
Tap to rate this tab
# A B C D E F G H I J K L M N O P Q R S T U V W X Y Z