Song name
# A B C D E F G H I J K L M N O P Q R S T U V W X Y Z

Phish - Auld Lang Syne tab

Phish
Auld Lang Syne
Live at Madison Square Garden, New Years Eve 1995


I have no knowledge of bars or time signatures, sorry.  This is not, however, that 
difficult to figure out.  You can look the song up on Spotify to listen to it.  Have a 
rockiní NYE!


E|-5---------------|----------------5-5h7~~~---|
B|---5b7~~r5-3-5---|-7-5-3~~3-5/7~~------------|
G|-----------------|---------------------------|
D|-----------------|---------------------------|
A|-----------------|---------------------------|
E|-----------------|---------------------------|

E|-5h7-5~~\2-2-2-------------------|---------------------------|
B|---------------3~~3h5~~3-3h5~~---|-5/7-7\5-3~~-----------3---|
G|---------------------------------|------------2h4-2h4~2~~2---|
D|---------------------------------|-----------------------0---|
A|---------------------------------|-----------------------0---|
E|---------------------------------|---------------------------|

E|------------------------------|---------------5-7~~~~~~---|
B|-(3)---3~-2h3~~--5b7~r5~-3-5--|-b7r5-3~~3-5/7-------------|
G|-(2)-2------------------------|---------------------------|
D|-(0)--------------------------|---------------------------|
A|-(0)--------------------------|---------------------------|
E|------------------------------|---------------------------|

E|-(7)~5h7-5h7-5~\2-2--------------|-------------------------------------|
B|--------------------3~-5~-3-5~~--|-5b7-5b7~r5-3~~------------7~~10b12--|
G|---------------------------------|----------------2h4-2h4-2--7~~-------|
D|---------------------------------|---------------------------7~~-------|
A|---------------------------------|---------------------------0~~-------|
E|---------------------------------|-------------------------------------|

E|----------------------------------|
B|---------7------------------------|
G|---7-9b11~r9-7~~-9b11-9b11r9-9~~--|
D|-7~-------------------------------|
A|----------------------------------|
E|----------------------------------|


E|-----------------12b14r12-10-10-12/14~-17-19~~-|
B|--------10h12-10-------------------------------|
G|-7-9/11----------------------------------------|
D|-----------------------------------------------|
A|-----------------------------------------------|
E|-----------------------------------------------|

E|-17h19-17h19-17h19-17h19-17h19-17~~~~|---------------------17-----------|
B|-------------------------------------|-19--15-17~-15-17~b19~~~19r17-15~-|
G|-------------------------------------|----------------------------------|
D|-------------------------------------|----------------------------------|
A|-------------------------------------|----------------------------------|
E|-------------------------------------|----------------------------------|

E|-----------------------------------17b19--|
B|-------15-b19r17-b19r17-b19r17-15~~-------|
G|-14-16------------------------------------|
D|------------------------------------------|
A|------------------------------------------|
E|------------------------------------------|

E|-(19)-17b19-17~~-14-14--------------17b19-17~-14-14~-17/19~19~~~~|
B|-----------------------15-17~~15-17~-----------------------------|
G|-----------------------------------------------------------------|
D|-----------------------------------------------------------------|
A|-----------------------------------------------------------------|
E|-----------------------------------------------------------------|


E|-17h19-17~---------------------------------------------------------------|
B|-----------(19-19)-15-17~-15-17~-17b19-19r17-15~------------------15~~~~-|
G|------------------------------------------------14h16-14h16~-14~~~-------|
D|-------------------------------------------------------------------------|
A|-------------------------------------------------------------------------|
E|-------------------------------------------------------------------------|
Tap to rate this tab
 
# A B C D E F G H I J K L M N O P Q R S T U V W X Y Z